Death By Injection - Leave Me Alone Chords & Tabs

 

Leave Me Alone Chords & Tabs

Death By Injection Chords & Tabs

Version: 1 Type: Tab

Leave Me Alone Tab

   
Ok, we are not a real band, it's just me and my step brother, we wanted to play some 
and here it is, if you want to hear it in full just email and i will send u it on msn or 
other instant messenging service.

The story is my girlfriend told me to write my feelings about my dad and her so i did in a song :), it is emo and 4/4 timing


Electric guitar

e---------------------------------------------------------------------------------------------------------------|
b---------------------------------------------------------------------------------------------------------------|
g---------------------------------------------------------------------------------------------------------------|
a---------------------------------------------------------------------------------------------------------------|
E--3-3-3-2-2-2-0-0-0-0-002/3-3-3-3-2-2-2-0-0-0-0-002/3-3-3-3-5-5-5-7-7-7-9-9-9-5-5-5-3-3-3-2-2-2-0-0-0-0-002/3--|
   pm...............................................................................

Both guitars 2x
e---------------------------------------------------------|
b---------------------------------------------------------|
g---------------------------------------------------------|
a---------------------------------------------------------|
E--3-3-3-2-2-2-0-0-0-0-002/3-3-3-3-2-2-2-0-0-0-0-002/3----|

Acoustic
e---------------------------------------------------------|
b---------------------------------------------------------|
g---------------------------------------------------------|
a---------------------------------------------------------|
E--3-3-3-2-2-2-0-0-0-0-002/3-3-3-3-2-2-2-0-0-0-0-002/3----|
Electric

e--------3-------------------------3----------------------|
b--------3-----3-------------------3-----3----------------|
g--------------2-------2-----------------2-------2--------|
d--2-------------------2---2---------------------2--------|
a--2-----2-----------------2---------2--------------------|
E--------3-------------------------3----------------------|
   pm.............................................

Verse

Both Guitars strum x4

e--------3-----------------------3--------------------------|
b--------3-----3-----------------3-----3--------------------|
g--------------2-----2-----------------2-----2--------------|
d--2-----------------2---2-------------------2--------------|
a--2-----2---------------2-------2--------------------------|
E--------3-----------------------3--------------------------|
   There was a time when.....
Bridge

Acoustic
e---------------------------------------------------------|
b---------------------------------------------------------|
g---------------------------------------------------------|
a---------------------------------------------------------|
E--3-3-3-2-2-2-0-0-0-0-002/3-3-3-3-2-2-2-0-0-0-0-002/3----|

Electric

e--------3~------------------------3~-------------------------|
b--------3~----3~------------------3~----3~-------------------|
g--------------2~------2~----------------2~------2~-----------|
d--2~------------------2~--2~--------------------2~-----------|
a--2~----2~----------------2~------2~-------------------------|
E--------3-~-----------------------3~-------------------------|

Acoustic
             x2
e--3--3--3--3--|--3~--3~--3~~-3~--3~--3~-----------------------------------------|
b--3--3--3--3--|--3~--3~--3~~-3~--3~--3~-----------------------------------------|
g--0--0--2--2--|--0~--0~--2~~-0~--0~--2~-----------------------------------------|
a--2--0--2--3--|--2~--0~--2~~-2~--0~--3~-----------------------------------------|
E--3--2--------|--3~--2~--0~~-3~--2~--0~-----------------------------------------|
   Leave me alone, there is nothing left

Electric x4

e---------------------------------------------------------|
b---------------------------------------------------------|
g---------------------------------------------------------|
a---------------------------------------------------------|
E--3-3-3-2-2-2-0-0-0-0-002/3-3-3-3-2-2-2-0-0-0-0-002/3----|

Chorus

Acoustic

e---------------------------------------------------------------------------------------------------------------|
b---------------------------------------------------------------------------------------------------------------|
g---------------------------------------------------------------------------------------------------------------|
a---------------------------------------------------------------------------------------------------------------|
E--3-3-3-2-2-2-0-0-0-0-002/3-3-3-3-2-2-2-0-0-0-0-002/3-3-3-3-5-5-5-7-7-7-9-9-9-5-5-5-3-3-3-2-2-2-0-0-0-0-002/3--|

Electric - distortion

e--------3-------------------------3-----------------------3----------------------|
b--------3-----3-------1-----------3-----3-----1-----------3-----3-----1----------|
g--------------2-------0-----------------2-----0-----------------2-----0----------|
d--2-------------------2---2-------------------2-----2-----------------2----------|
a--2-----2-------------3---2-------2-----------3-----2-----2-----------3----------|
E--------3-------------------------3-----------------------3----------------------|
   I look at my past, It has gone so fast

Verse 2

Both Guitars x4

e--------3-----------------------3--------------------------|
b--------3-----3-----------------3-----3--------------------|
g--------------2-----2-----------------2-----2--------------|
d--2-----------------2---2-------------------2--------------|
a--2-----2---------------2-------2--------------------------|
E--------3-----------------------3--------------------------|
   One more day, before i must leave

Bridge
Acoustic

e---------------------------------------------------------|
b---------------------------------------------------------|
g---------------------------------------------------------|
a---------------------------------------------------------|
E--3-3-3-2-2-2-0-0-0-0-002/3-3-3-3-2-2-2-0-0-0-0-002/3----|

Electric

e--------3~------------------------3~-------------------------|
b--------3~----3~------------------3~----3~-------------------|
g--------------2~------2~----------------2~------2~-----------|
d--2~------------------2~--2~--------------------2~-----------|
a--2~----2~----------------2~------2~-------------------------|
E--------3-~-----------------------3~-------------------------|

Acoustic
             x2
e--3--3--3--3--|--3~--3~--3~~-3~--3~--3~-----------------------------------------|
b--3--3--3--3--|--3~--3~--3~~-3~--3~--3~-----------------------------------------|
g--0--0--2--2--|--0~--0~--2~~-0~--0~--2~-----------------------------------------|
a--2--0--2--3--|--2~--0~--2~~-2~--0~--3~-----------------------------------------|
E--3--2--------|--3~--2~--0~~-3~--2~--0~-----------------------------------------|
   Leave me alone,

Electric x4

e---------------------------------------------------------|
b---------------------------------------------------------|
g---------------------------------------------------------|
a---------------------------------------------------------|
E--3-3-3-2-2-2-0-0-0-0-002/3-3-3-3-2-2-2-0-0-0-0-002/3----|

Chorus

Acoustic

e------------------------------------------------------------------------------------|
b------------------------------------------------------------------------------------|
g------------------------------------------------------------------------------------|
a------------------------------------------------------------------------------------|
E--3-3-3-2-2-2-0-0-0-0-002/3-3-3-3-5-5-5-7-7-7-9-9-9-5-5-5-3-3-3-2-2-2-0-0-0-0-002/3-|
   I look at my past
Electric

e--------3-------------------------3-----------------------3------------------------3----------------|
b--------3-----3-------1-----------3-----3-----1-----------3-----3-----1------------3-----3-------1--|
g--------------2-------0-----------------2-----0-----------------2-----0------------------2-------0--|
d--2-------------------2---2-------------------2-----2-----------------2-------2------------------2--|
a--2-----2-------------3---2-------2-----------3-----2-----2-----------3-------2----2-------------3--|
E--------3-------------------------3-----------------------3------------------------3----------------|

Interlude/solo

Acoustic
[ Tab from: http://www.guitartabs.cc/tabs/d/death_by_injection/leave_me_alone_tab.html ]
e---------------------------------------------------------------------------------------------------------------------------|
b---------------------------------------------------------------------------------------------------------------------------|
g---------------------------------------------------------------------------------------------------------------------------|
a3-3-3-2-2-2-0-0-0-0-0-0-0-002/3-3-3-3-2-2-2-0-0-0-0-0-0-0-002/3-3-3-3-5-5-5-9-7-7-7-7-9-9-9-9-5-5-5-5-3-3-3-3-2-2-2-2-0-0-0|
E---------------------------------------------------------------------------------------------------------------------------|
 Leave me alone

Acoustic - strum but for same length

e-----------------------------------------------------------------------------------------------------------------|
b-----------------------------------------------------------------------------------------------------------------|
g-----------------------------------------------------------------------------------------------------------------|x2
a-----------------------------------------------------------------------------------------------------------------|
E--002/3-3-3-3-2-2-2-0-0-0-0-002/3-3-3-3-2-2-2-0-0-0-0-002/3-3-3-3-5-5-5-7-7-7-9-9-9-5-5-5-3-3-3-2-2-2-0-0-0-002/3|


Electric - dont strum & distortion

e-----------------------------------------------------------------------------------------------------------------|
b-----------------------------------------------------------------------------------------------------------------|
g-----------------------------------------------------------------------------------------------------------------|x2
a-----------------------------------------------------------------------------------------------------------------|
E--002/3-3-3-3-2-2-2-0-0-0-0-002/3-3-3-3-2-2-2-0-0-0-0-002/3-3-3-3-5-5-5-7-7-7-9-9-9-5-5-5-3-3-3-2-2-2-0-0-0-002/3|

Verse 3

Both Guitars x4

e--------3-----------------------3--------------------------|
b--------3-----3-----------------3-----3--------------------|
g--------------2-----2-----------------2-----2--------------|
d--2-----------------2---2-------------------2--------------|
a--2-----2---------------2-------2--------------------------|
E--------3-----------------------3--------------------------|
   I can not think straight

Bridge
Acoustic

e---------------------------------------------------------|
b---------------------------------------------------------|
g---------------------------------------------------------|
a---------------------------------------------------------|
E--3-3-3-2-2-2-0-0-0-0-002/3-3-3-3-2-2-2-0-0-0-0-002/3----|

Electric

e--------3~------------------------3~-------------------------|
b--------3~----3~------------------3~----3~-------------------|
g--------------2~------2~----------------2~------2~-----------|
d--2~------------------2~--2~--------------------2~-----------|
a--2~----2~----------------2~------2~-------------------------|
E--------3-~-----------------------3~-------------------------|

Acoustic
             x2
e--3--3--3--3--|--3~--3~--3~~-3~--3~--3~-----------------------------------------|
b--3--3--3--3--|--3~--3~--3~~-3~--3~--3~-----------------------------------------|
g--0--0--2--2--|--0~--0~--2~~-0~--0~--2~-----------------------------------------|
a--2--0--2--3--|--2~--0~--2~~-2~--0~--3~-----------------------------------------|
E--3--2--------|--3~--2~--0~~-3~--2~--0~-----------------------------------------|
   Leave me alone

Electric x4

e---------------------------------------------------------|
b---------------------------------------------------------|
g---------------------------------------------------------|
a---------------------------------------------------------|
E--3-3-3-2-2-2-0-0-0-0-002/3-3-3-3-2-2-2-0-0-0-0-002/3----|

Chorus

Acoustic

e------------------------------------------------------------------------------------|
b------------------------------------------------------------------------------------|
g------------------------------------------------------------------------------------|
a------------------------------------------------------------------------------------|
E--3-3-3-2-2-2-0-0-0-0-002/3-3-3-3-5-5-5-7-7-7-9-9-9-5-5-5-3-3-3-2-2-2-0-0-0-0-002/3-|

Electric

e--------3-------------------------3-----------------------3------------------------3----------------|
b--------3-----3-------1-----------3-----3-----1-----------3-----3-----1------------3-----3-------1--|
g--------------2-------0-----------------2-----0-----------------2-----0------------------2-------0--|
d--2-------------------2---2-------------------2-----2-----------------2-------2------------------2--|
a--2-----2-------------3---2-------2-----------3-----2-----2-----------3-------2----2-------------3--|
E--------3-------------------------3-----------------------3------------------------3----------------|
   I look at my past

Bridge
Acoustic

e---------------------------------------------------------|
b---------------------------------------------------------|
g---------------------------------------------------------|
a---------------------------------------------------------|
E--3-3-3-2-2-2-0-0-0-0-002/3-3-3-3-2-2-2-0-0-0-0-002/3----|

Electric

e--------3~------------------------3~-------------------------|
b--------3~----3~------------------3~----3~-------------------|
g--------------2~------2~----------------2~------2~-----------|
d--2~------------------2~--2~--------------------2~-----------|
a--2~----2~----------------2~------2~-------------------------|
E--------3-~-----------------------3~-------------------------|

Acoustic
             x2
e--3--3--3--3--|--3~--3~--3~~-3~--3~--3~-----------------------------------------|
b--3--3--3--3--|--3~--3~--3~~-3~--3~--3~-----------------------------------------|
g--0--0--2--2--|--0~--0~--2~~-0~--0~--2~-----------------------------------------|
a--2--0--2--3--|--2~--0~--2~~-2~--0~--3~-----------------------------------------|
E--3--2--------|--3~--2~--0~~-3~--2~--0~-----------------------------------------|
   Leave me alone

Electric x4

e---------------------------------------------------------|
b---------------------------------------------------------|
g---------------------------------------------------------|
a---------------------------------------------------------|
E--3-3-3-2-2-2-0-0-0-0-002/3-3-3-3-2-2-2-0-0-0-0-002/3----|

Chorus

Acoustic

e----------------------------------------------------------------------------------|
b----------------------------------------------------------------------------------|
g----------------------------------------------------------------------------------|
a----------------------------------------------------------------------------------|
E--3-3-3-2-2-2-0-0-0-0-002/3-3-3-3-5-5-5-7-7-7-9-9-9-5-5-5-3-3-3-2-2-2-0-0-0-002/3-|

Electric

e--3-----3-----3-------3---3-------3-----3-----3------3----3-----3-----3------------|
b--3-----3-----3-------3---3-------3-----3-----3------3----3-----3-----3------------|
g----------------------------------------2-----2------2----------2-----2------------|
d--2-----------2-------2---2-------------3-----2------2----------3-----3------------|
a--2-----2-----2-------2---2-------2-----------------------2------------------------|
E--------3-------------------------3-----------------------3------------------------|
   I look at my past

Outro

Acoustic

e-----------------------------------------------------------------------------------------------------------------------------|
b-----------------------------------------------------------------------------------------------------------------------------|
g-----------------------------------------------------------------------------------------------------------------------------|
a-----------------------------------------------------------------------------------------------------------------------------|
E--3-3-3-2-2-2-0-0-0-0-002/3-3-3-3-2-2-2-0-0-0-002/3-3-3-3-5-5-5-7-7-7-9-9-9-5-5-5-3-3-3-2-2-2-0-0-0-002/3-3-3-2-2-2-0-0-0-0--|

Electric - metal stack

e--3-3-3-2-2-2-0-0-0-0-002/3-3-3-3-2-2-2-0-0-0-002/3-3-3-3-5-5-5-7-7-7-9-9-9-5-5-5-3-3-3-2-2-2-0-0-0-002/3-3-3-2-2-2-0-0-0-0--|
b-----------------------------------------------------------------------------------------------------------------------------|
g-----------------------------------------------------------------------------------------------------------------------------|
a-----------------------------------------------------------------------------------------------------------------------------|
E--3-3-3-2-2-2-0-0-0-0-002/3-3-3-3-2-2-2-0-0-0-002/3-3-3-3-5-5-5-7-7-7-9-9-9-5-5-5-3-3-3-2-2-2-0-0-0-002/3-3-3-2-2-2-0-0-0-0--|

Electric - metal stack

e--3-3-3-2-2-2-0-0-0-0-002/3-3-3-3-2-2-2-0-0-0-002/3-3-3-3-5-5-5-7-7-7-9-9-9-5-5-5-3-3-3-2-2-2-0-0-0-002/3-3-3-2-2-2-000--|
b-------------------------------------------------------------------------------------------------------------------------|
g-------------------------------------------------------------------------------------------------------------------------|
a-------------------------------------------------------------------------------------------------------------------------|
E--3-3-3-2-2-2-0-0-0-0-002/3-3-3-3-2-2-2-0-0-0-002/3-3-3-3-5-5-5-7-7-7-9-9-9-5-5-5-3-3-3-2-2-2-0-0-0-002/3-3-3-2-2-2-000--|
   pm.......................................................................................