Death - Voice Of The Soul Chords & Tabs

 

Voice Of The Soul Chords & Tabs

Death Chords & Tabs

Version: 1 Type: Tab 0 ratings
1 star 2 stars 3 stars 4 stars 5 stars
comments

Voice Of The Soul Tab

   
                              Voice of the soul
                                   by DEATH
             

                             transcripted by Yam
                          email: BarakAmsalem@hotmail.com

. = palm muting               t = tapping
p = pull-off                  h = hammer
~ = vibrato                   / = slide
\ = slide down                b = bend
br= bend relase               bf= bend full
bf½= bend full and 1/2

|------------------------------------------------------------|
|12-12/13-13/15-15/17-17/15-15/13-13-13/12-12----------------|
|------------------------------------------------------------|gtr 1
|------------------------------------------------------------|
|------------------------------------------------------------|
|------------------------------------------------------------|

|------------------------------------------------------------|
|------------------------------------------------------------|
|------------------------------------------------------------|gtr2
|9--9/10--10/12-12/14-14/12-12/10-10-10/9---9----------------|
|------------------------------------------------------------|
|------------------------------------------------------------|

|19----17----------------------------------------------------|
|---20----20-19-19-19-17-15-15/17-17~------------------------|
|------------------------------------------------------------|gtr 1
|------------------------------------------------------------|
|------------------------------------------------------------|
|------------------------------------------------------------|

|------------------------------------------------------------|
|12----10----------------------------------------------------|
|---12----12-11-11-11-9--7--7/-9--9~-------------------------|gtr 2
|------------------------------------------------------------|
|------------------------------------------------------------|
|------------------------------------------------------------|

|14-14/12-12-12/15-15-15/14-14-14/10-10-10/19-19~------------|
|------------------------------------------------------------|
|------------------------------------------------------------|gtr 1
|------------------------------------------------------------|
|------------------------------------------------------------|
|------------------------------------------------------------|

|12-12-15-14-12-14~--14-14-17-15-14-15~--15-15-19-17-15-17~--|
|------------------------------------------------------------|
|------------------------------------------------------------|gtr 1
|------------------------------------------------------------|
|------------------------------------------------------------|
|------------------------------------------------------------|

|24bfr~------------------------------------------------------|
|--------17-17/19-19/20-19/20/19~-\--------------------------|
|------------------------------------------------------------|gtr 1
|------------------------------------------------------------|
|------------------------------------------------------------|
|------------------------------------------------------------|

|7h8h10t14~-7h8h10t15~-7h8h10t17~-7h8h10t15~-----------------|
|------------------------------------------------------------|
|------------------------------------------------------------|gtr 1
|------------------------------------------------------------|
|------------------------------------------------------------|
|------------------------------------------------------------|


|------------------------------------------------------------|
|5h7h8t12~--5h7h8t13~--5h7h8t15~--5h7h8t13~------------------|
|------------------------------------------------------------|
|------------------------------------------------------------|gtr 2
|------------------------------------------------------------|
|------------------------------------------------------------|

|------------------------------------------------------------|
|------------------------10-12-13----------------------------|
|9-11-12--------9-11-12-----------9-11-12--------------------|gtr1
|--------7-9-10----------------------------------------------|
|------------------------------------------------------------|
|------------------------------------------------------------|
         . .    

d|t15p10-t14p10-t12p10-t14p10-t12p10-t14p10-t15p10-t14p10
 -t15p10-t17p10-t15p10-t14p10-t12p10-t14p10-t15p10-t12p10|gtr 1

*don't do a vibrato on this note the first time                                       
|---------------------------------------|-----------------------|
|--------10-12----10-------10-12-13-*12~|-10--------------------|
|9-11-12-------12----11-12--------------|----12-11--------------|gtr 2
|---------------------------------------|-----------------------|
|---------------------------------------|-----------------------|
|---------------------------------------|-----------------------|
[ Tab from: http://www.guitartabs.cc/tabs/d/death/voice_of_the_soul_tab.html ]
|-------10-8~-7~---------------------------------------------|
|10-12~------------------------------------------------------|
|------------------------------------------------------------|gtr 2
|------------------------------------------------------------|
|------------------------------------------------------------|
|------------------------------------------------------------|

|12~-14~|-15~-17~-15~-14/12--|-20~-19~------------------------|
|-------|--------------------|--------------------------------|
|-------|--------------------|--------------------------------|
|-------|--------------------|--------------------------------|
|-------|--------------------|--------------------------------|
|-------|--------------------|--------------------------------|

|-------|--------------------|--------------------------------|
|-------|--------------------|--------------------------------|
|9~--11~|-12~-14~-12~-12/9---|-17~ 16~------------------------|
|-------|--------------------|--------------------------------|
|-------|--------------------|--------------------------------|
|-------|--------------------|--------------------------------|

|14~\-------17~\---------------------------------------------|gtr 1
|------------------------------------------------------------|
|11~\-------14~\---------------------------------------------|gtr 2
|------------------------------------------------------------|
|------------------------------------------------------------|
|------------------------------------------------------------|


|------------------------------------------------------------|
|22-22~-22/20/10-10-10/15-15-17-15-14/15-14~-\---------------|
|------------------------------------------------------------|
|------------------------------------------------------------|gtr 1
|------------------------------------------------------------|
|------------------------------------------------------------|
|------------------------------------------------------------|

|------------------------------------------------------------|
|------------------------------------------------------------|
|20-20~-20/18/8--8--8/13--13-15-13-12/13-12~-\---------------|gtr 2
|------------------------------------------------------------|
|------------------------------------------------------------|
|------------------------------------------------------------|

|----------------------------------------------------------------------------|
|12-12-----------------------------------------------------------------------|
|------12-12-----------------------------------------------------------------|gtr 1
|------------10-10-9--9--7--7--9--9--10-10-12-12br-10-10-9-12br-10--9/10--9~-|
|----------------------------------------------------------------------------|
|----------------------------------------------------------------------------|

|19-19-----------------------------------------------------------------------|
|------20-20-13-13-12-12-10-10-12-12-13-13-14-14br-13-13-12-14br-13-12/13-12~|
|----------------------------------------------------------------------------|gtr 2
|----------------------------------------------------------------------------|
|----------------------------------------------------------------------------|
|----------------------------------------------------------------------------|

|24bfr-------------------------------------------------------|
|------------------------------------------------------------|
|------------------------------------------------------------|gtr 1
|------------------------------------------------------------|
|------------------------------------------------------------|
|------------------------------------------------------------|

|12~-14~|-15~-17~-15~-14/12--|-20~-19~------------------------|
|-------|--------------------|--------------------------------|
|-------|--------------------|--------------------------------|gtr 1
|-------|--------------------|--------------------------------|
|-------|--------------------|--------------------------------|
|-------|--------------------|--------------------------------|

|-------|--------------------|--------------------------------|
|-------|--------------------|--------------------------------|
|9~--11~|-12~-14~-12~-12/9---|-17~ 16~------------------------|gtr 2
|-------|--------------------|--------------------------------|
|-------|--------------------|--------------------------------|
|-------|--------------------|--------------------------------|

|20-19-17-------------|--------|------17|24-24bf-24bf½-24bf~-24bf½-24bf-24bf½~|
|---------20-19-17-19-|17-19-20|19-20---|-------------------------------------|
|---------------------|--------|--------|-------------------------------------|gtr 1
|---------------------|--------|--------|-------------------------------------|
|---------------------|--------|--------|-------------------------------------|
|---------------------|--------|--------|-------------------------------------|


Comments