Death - Spiritual Healing Chords & Tabs

 

Spiritual Healing Chords & Tabs

Death Chords & Tabs

Version: 1 Type: Tab 0 ratings
1 star 2 stars 3 stars 4 stars 5 stars
comments

Spiritual Healing Tab

   
                          DEATH - SPIRITUAL HEALING 
                     FROM THE "SPIRITUAL HEALING" ALBUM
                       Copyright 1990 Relativity Records

                        Version 2.0 - October 1997

ReTranscribed by: Richard Broadhead()


Check Out My Web Page, With More Transcriptions On It:
               

Tuning:D, tune every string down one step

.  - palm mute                          /  - slide up to                       
\  - slide down to                      ~  - vibrato                            
h  - hammer on                          b  - bend 
p  - pull off                              Suffixes for bend    
t  - tap with finger                            f - full bend    h - half bend
() - ghost note                                 r - release      t - tap bend
*  - see comment                                p - pick when bent 

Opening Riff(GUITAR ONE)
|--------------------------------------------------------------------------
|--------------------------------------------------------------------------
|--------------------------------------------------------------------------
|--T-P-T--P-T--P--T-P-T--P-T--P-T--P--T-P--T-P--T--P--T--P--T-P-T--P-T--P--
|-12-5-12-7-12-8-12-5-12-7-12-8-12-5-12-7-16-9-16-11-16-12-11-4-11-6-11-7--
|--------------------------------------------------------------------------
| guitar 2
|--------------------------------------------------------------------------
|--------------------------------------------------------------------------
|--------------------------------------------------------------------------
|--------------------------------------------------------------------------
|-7---------------------------------------11---------------6---------------
|-5---------------------------------------9----------------4---------------

continuation of above Riff
--------------|
--------------|           Play Opening Riff 4 times
--------------| gtr I
--T--P-T--P---|
--15-8-15-10--|
--------------|
|
|
--------------|
--------------|
--------------| Gtr II
--------------|
--10----------|
--8-----------|

|----------|
|----------|
|----------|
|----------|
|-3--3--3--|
|-1--1--1--|
                                               ______
Riff A                                        | 1,2,3,4,5,6,7
|---------------------------------------------------|
|---------------------------------------------------|
|---------------------------------------------------| Gtr 1 and 2
|---------------------------------------------------|
|-3--------3---5---6-------3--------6---5---3-------|
|-1-0000-0-1-0-3-0-4-0-0-0-1-0000-0-4-0-3-0-1-0-0-0-|
    .... .   .   .   . . .   .... .   .   .   . . .

Play Riff A a total of 8 times

 Riff B(repeat 4 times)
|---|----------------------------|
|---|----------------------------|
|---|*--------------------------*|
|---|*--------------------------*|
|-3-|--4----4~---3--5-5-5-5-5-5--|
|-1-|--2---------1--3-3-3-3-3-3--|
                      . .   . .

 Riff C
|----------------------------------------------------------------------|
|----------------------------------------------------------------------|
|----------------------------------------------------------------------|
|-----------------6----------------7----------------6--------5---------|
|-----------------4----------------5----------------4--------3---------|
|-2222222222222222-3333333333333333-5555555555555555-44444444-33333333-|
  ................ ................ ................ ........ ........

Play Riff C a total of 8 times,last time end shortly and end with the C5

Riff D
|------------------------------------------------------------------|
|------------------------------------------------------------------|
|------------------------------------------------------------------|
|------------------------------------------------------------------|
|-----------------6666666677777777----------------66664444---------|
|-4444444444444444----------------3333333333333333--------77776666-|
  ................................................................
[ Tab from: http://www.guitartabs.cc/tabs/d/death/spiritual_healing_tab.html ]
Play Riff D a total of 4 times
                      _________________    _______________   
Riff E.1             | 1.                 | 2.
|----------------------------------------|-----------------|
|----------------------------------------|-----------------|
|----------------------------------------|-----------------|
|-6--------7----6------------------------|-----------------|
|--55555555-5555-55557----8----7----8-8--|-7----8----7~----|
|---------------------6666-6666-6666-6-6-|--6666-6666------|
   ........ .... .... .... .... .... . .    .... ....
                                    ______  _______
Riff E.2                           | 1,3   | 2,4
|-----------------------------------------|----------|
|-----------------------------------------|----------|
|-----------------------------------------|----------|
|-----------------------------------------|----------|
|--7--------------------------------------|----------|
|----5-444444444444444433333333333333333--|-0000-----|
       .................................    ....

Play Riff E.1, Riff E.2

Riff F.1
|----|----|
|----|----|
|----|----|
|----|----|
|----|----|
|-2--|-2--|
|-0--|-0--|

Riff F.2(play 8 times)
|-----------------------------|-----------------------------|
|-----------------------------|-----------------------------|
|-----------------------------|-----------------------------|
|-----------------------------|-----------------------------|
|-----------------------------|-----------------------------|
|-5-----3-----5-----3-----9-8-|-5-----3-----5-----3-----6-5-|
|-3-0-0-1-0-0-3-0-0-1-0-0-7-6-|-3-0-0-1-0-0-3-0-0-1-0-0-4-3-|
    . .   . .   . .   . .         . .   . .   . .   . .

 4 times      2 times     2 times    8 times
|-----------|-------------|----------|----------|
|-t--p--h-p-|-t--p--h--p--|-t--p-h-p-|-t--p-h-p-|
|-16-9-12-9-|-17-10-13-10-|-12-5-8-5-|-13-6-9-6-| gtr one
|-----------|-------------|----------|----------|
|-----------|-------------|----------|----------|
|-----------|-------------|----------|----------|
|
|-----------|-------------|----------|----------|
|-----------|-------------|----------|----------|
|-9---------|-10----------|-5--------|-6--------| gtr 2
|-----------|-------------|----------|----------|
|-7---------|-8-----------|-3--------|-4--------|
|-----------|-------------|----------|----------|

Play The above twice

 4 times      2 times     2 times    8 times    
|-------------|-------------|----------|-----------|
|-t--p--h--p--|-t--p--h--p--|-t--p-h-p-|-t--p-h--p-|
|-17-10-13-10-|-17-11-14-11-|-13-6-9-6-|-14-7-10-7-| gtr one
|-------------|-------------|----------|-----------|
|-------------|-------------|----------|-----------|
|-------------|-------------|----------|-----------|
|
|-------------|-------------|----------|-----------|
|-------------|-------------|----------|-----------|
|-10----------|-11----------|-6--------|-7---------| gtr 2
|-------------|-------------|----------|-----------|
|-8-----------|-9-----------|-4--------|-5---------|
|-------------|-------------|----------|-----------|

Play The Above twice

 play four times 
|--------------------------------------------------|
|--------------------------------------------------|
|--------------------------------------------------|
|--------------------------------------------------|
|-------------------------444444444444------333333-|
|-222222222222222222222222------------444444-------|  
  ................................................

 play four times 
|--------------------------------------------------|
|--------------------------------------------------|
|--------------------------------------------------|
|--------------------------------------------------|
|--------------------------------------------------|
|-000000000000000000000000333333333333666666111111-|  
  ................................................

Play Riff A 8 times
Play Riff B
Play Riff C 8 times, on last time cut it short with the C5
Play Riff D
Play Riff E.1,E.2,E.1,E.2
Play Riff F.1
Play Riff F.2
End song with E5



Check Out My Web Page, With More Transcriptions On It:
               
Comments