Death - Spirit Crusher Chords & Tabs

 

Spirit Crusher Chords & Tabs

Death Chords & Tabs

Version: 1 Type: Bass Tab 0 ratings
1 star 2 stars 3 stars 4 stars 5 stars
comments

Spirit Crusher Bass Tab

#----------------------------------PLEASE NOTE---------------------------------#
#This file is the author's own work and represents their interpretation of the #
#song. You may only use this file for private study, scholarship, or research. #
#------------------------------------------------------------------------------#

DEATH - SPIRIT CRUSHER

"THE SOUND OF PERSEVERANCE"
 
Transcribed by: Luca 
For questions: luca.metropolis2000@dreamtheater.zzn.com

Tuning: Tune down one whole step

Riff 0 (bass intro)

|--------------------------------10--10-/11-------| 
|--------8---8--/9------------8--------------9----|
|----6--------------7------6--------------------7-|
|-4--------------------5--------------------------|

Riff 1 (Verse) Play 4 Times 
|-------------------| 
|-------8---9-------|
|----6---------7----|
|-4---------------5-|

Riff 2 (Verse) Play twice 
|-------10---11----------------------------| 
|----8-----------9------------8----9-------|
|-6-----------------7-----6-----------7----|
|----------------------4-----------------5-|

Repeat Riff 1 and 2 once again


Riff 3 (Pre - Chorus) Play twice
|----------------------------------------------------| 
|--------------------9-----7-------------------------|
|-7-----9-----10-----------------9-----10-----9------|
|---000---000----000---000---000---000----000---000--|

|----------------------------------------------------|  
|----------------------------------------------------|
|-5-----7------9-----5------7~-----------------------|
|---000---000----000---000-------0-000-0-0-0-000-0---|

Riff 4
|--------------------------| 
|--------------------------| 
|-7-----9-----10-----9-----|
|---666---666----666---666-|

Riff 5
|---------------------------------------| 
|---------------------------------------|
|-7--------9--------10--------9---------|
|---777777---777777----777777---777777--|

Riff 6
|---------------------------------------| 
|---------------------------------------|
|-7--------9--------10--------9---------|
|---888888---888888----888888---888888--|

|---------------------------------------------------------| 
|---------------------------------------------------------|
|-9--------------12--------------10--------------7--------|
|---101010101010----101010101010----101010101010----------|


Riff 7 (Chorus)  Play once
|---------------------------------------------------| 
|---------------------------------------------------|  
|-----------------3------------------3---------5~---|
|-0/15/0~------0-----3-3/5-5~--0-0-0-----0-0-0------|

Play 4 times
|--------------------------------------| 
|--------------------------------------|  
|------3------------------3---------5--|
|-0-------3-3/5-5~--0-0-0-----0-0-0----|

Riff 8 Play once
|-----------------| 
|-----------------| 
|----3------------|
|-0-----3-3/5-5~--|

[ Tab from: http://www.guitartabs.cc/tabs/d/death/spirit_crusher_btab.html ]
Riff 9  Bass Solo
|--------------------------------10--10-/11-------| 
|--------8---8--/9------------8--------------9----|
|----6--------------7------6--------------------7-|
|-4--------------------5--------------------------|


Riff 10
|-------------------12---10---9------| 
|-----9---10---12-----------------10-|  
|-8-8---8----8----8----8----8---8----|
|------------------------------------|

|-------------------10---9-----------| 
|-----9---10---12------------9---10~-| 
|-8-8---8----8----8----8---8---8-----|
|------------------------------------|

Riff 11 (Play twice)
|-------------------------------------------------------------------------|
|----------7-9-9~----------9-10-10~----------10-12-12~----------12-10-10~-|
|-00000000--------00000000----------00000000-----------00000000-----------|
|-------------------------------------------------------------------------|

|-----------------------------------------------10-12-12~----------10-9-9~|
|----------9-10-10~----------10-12-12~------------------------------------|
|-88888888----------88888888-----------88888888-----------88888888--------|
|-------------------------------------------------------------------------|

Riff 13 (First Solo) (Play 4 Times)
|--------------------------------------------------------------| 
|-----------8------------------10----------7----------7------7-|
|-00000000----00000000--8-0000----00000000---00000000---0000---|
|--------------------------------------------------------------|


Riff 14 (Second Solo) (Play twice)
|----------------| 
|----------------|
|--4-------------|
|-----2---5---0--|



Riff 15 (Play twice)
|-----------------------------------------------| 
|---------9-------------10--------------12------|
|-------7---7---------8----8---------10----10---|
|-0-000--------0-000----------0-000-------------|


|-------------------------------| 
|---------10--------------------|
|-------8----8--------7-7----7--|
|-0-000---------000-0-----00----|


Riff 16
|-----------------------------------------------|
|---------9--------------10--------------12-----|
|-------7---7----------8----8---------10----10--|
|-0-000---------0-000----------0-000------------|

|---------11-------------12--------------14-----|
|-------9----9--------10----10--------12----12--|
|-----------------------------------------------|
|-0-000---------0-000----------0-000------------|


|-------------------------------|
|---------10--------------------|
|-------8----8--------7-7----7--|
|-0-000---------000-0-----00----|


|-----------------------------------------------|
|---------9--------------10--------------12-----|
|-------7---7----------8----8---------10----10--|
|-0-000---------0-000----------0-000------------|


|---------11-------------12--------------14-----|
|-------9----9--------10----10--------12----12--|
|-----------------------------------------------|
|-0-000---------0-000----------0-000------------|



That's all, have fun!!

LET THE METAL FLOW
Comments