Death - One Thousand Eyes Chords & Tabs

 

One Thousand Eyes Chords & Tabs

Death Chords & Tabs

Version: 1 Type: Tab 0 ratings
1 star 2 stars 3 stars 4 stars 5 stars
comments

One Thousand Eyes Tab

   
			   
			   1000 EYES BY DEATH
			   FROM THE "SYMBOLIC" CD
			   COPYRIGHT 1995 THE ALL BLACKS        

	Transcribed by Robin van der Harst
	E-Mail address: mkivits@pobox.qstone.nl

			Version 2.0 - October 1996

Version 2.0 Was Made Possible By 's Death Metal Tablature Site


-----------------------------------------------------------------------------
NOTES:

Tuning: Tune down one whole step (1:D, 2:A, 3:F, 4:C, 5:G, 6:D)

Timing: Timing of notes is somewhat indicative of relative lengths.

Notation: When two guitars are listed play all guitars simultaneously.
	  b = full bend         / = slide up            a.h. = artificial
	  h = hammer-on         \ = slide down                 harmonic
	  p = pull-off          . = palm mute(pm)          t = tapping
-----------------------------------------------------------------------------

Intro:
  Gtr. 1 & 2
||-----------------------------|----------------------------||
||-----------------------------|----------------------------||
||-----------------------------|----------------------------||
||---------9-------------------|---------7------------------||
||---------7---10--------------|---------5---8--------------||
||-0-0-0-0---------8-8-8-8-5-5-|-0-0-0-0--------6-6-6-6-6-6-||
pm . . . .         . . . . . .   . . . .        . . . . . .

||-----------------------------|----------------------------||
||-----------------------------|----------------------------||
||-----------------------------|----------------------------||
||---------9-------------------|---------7------------------||
||---------7---10--------------|---------5---8--------------||
||-0-0-0-0---------8-8-8-8-5555|-55555555-------6-6-6-6-6-6-||
pm . . . .         . . . . ....  ........       . . . . . .

||----------------------------|-----------------------------|
||----------------------------|-----------------------------|
||----------------------------|-----------------------------|
||---------9------------------|---------9-------------------|
||---------7---6--------------|---------7---10--------------|
||-0-0-0-0--------4-4-4-4-0-0-|-0-0-0-0---------8-8-8-8-5-5-|
pm . . . .        . . . . . .   . . . .         . . . . . .

 |----------------------------|---------------------------||
 |----------------------------|---------------------------||
 |----------------------------|---------------------------||
 |---------9------------------|---------9-----------------||
 |---------7---6--------------|---------7---8-------------||
 |-0-0-0-0--------4-4-4-4-4-4-|-0-0-0-0-------6-6-6-6-6-6-||
pm . . . .        . . . . . .   . . . .       . . . . . . 

Section A:
  Gtr. 1 & 2
			       1.컴컴컴컴컴컴컴컴컴컴컴컴>
||----------------------------|---------------------------|
||----------------------------|---------------------------|
||*---------------------------|--------------------------*|
||*-----9-------10-10-9----12-|-----9-------10 10 9------*|
||-0000-7--0000-7--7--7-10-10-|-0-0-7--0000-7--7--7-10-12-|
||----------------------8-----|---------------------8--10-|
pm ....    ....                 . .    ....

  2.컴컴컴컴컴컴컴컴컴컴컴컴>
 |---------------------------||
 |---------------------------||
 |---------------------------||
 |-----9-------10-10-9-------||
 |-0-0-7--0000-7--7--7-10----||
 |---------------------8-----||
pm . .    ....

Play Section A again. (play 3 in place of 2)

  3.컴컴컴컴컴컴컴컴컴컴컴컴>
 |---------------------------||
 |---------------------------||
 |---------------------------||
 |-----9-------10-10-9-------||
 |-0-0-7--0000-7--7--7-10----||
 |---------------------8--10-||
pm . .    ....            A.h.

Section B: play 4 times
  Gtr. 1 & 2
||-------------------|-------------------|----------------------------------||
||-------------------|-------------------|----------------------------------||
||-------------------|-------------------|----------------------------------||
||-------------------|-------------------|----------------------------------||
||-5--2--------------|-3--2------3-2---5-|----------------------------------||
||-3--0-000000000000-|-1--0-0000-----3---|-44444444444444441111111111111111-||
pm    . ............      . ....           ................................

Section C: 
  Gtr. 1  
||------------------|------------------|-----------------|-----------------||
||------------------|------------------|-----------------|-----------------||
||------------------|-6-6--------------|-----------------|-8-8-------------||
||-2-2--------------|-6-6--------------|-6-6-------------|-8-8-------------||
||-2-2--------------|-4-4--------------|-6-6-------------|-6-6-------------||
||-0-0--------------|------------------|-4-4-------------|-----------------||

Section C: 
  Gtr. 2 w/flanger
   t p p h p h  t p p h p h  t p p h p h  t p p h p h
||-----------------------------------------------------|
||-12-8-5-8-5-8-12-8-5-8-5-8-12-8-5-8-5-8-12-8-5-8-5-8-|
||-----------------------------------------------------|
||-----------------------------------------------------|
||-----------------------------------------------------|
||-----------------------------------------------------|

   t p p h p h  t p p h p h  t p p h p h  t p p h p h
 |-----------------------------------------------------|
 |-----------------------------------------------------|
 |-13-9-6-9-6-9-13-9-6-9-6-9-13-9-6-9-6-9-13-9-6-9-6-9-|
 |-----------------------------------------------------|
 |-----------------------------------------------------|
 |-----------------------------------------------------|

   t p p h p h  t p p h p h  t p p h p h  t p p h p h
 |-11-7-4-7-4-7-11-7-4-7-4-7-11-7-4-7-4-7-11-7-4-7-4-7-|
 |-----------------------------------------------------|
 |-----------------------------------------------------|
 |-----------------------------------------------------|
 |-----------------------------------------------------|
 |-----------------------------------------------------|

   t p p h p h  t p p h p h  t p p h p h  t p p h p h
 |-----------------------------------------------------||
 |-11-7-4-7-4-7-11-7-4-7-4-7-11-7-4-7-4-7-11-7-4-7-4-7-||
 |-----------------------------------------------------||
 |-----------------------------------------------------||
 |-----------------------------------------------------||
 |-----------------------------------------------------||

Section D: play 4 times
  Gtr. 1 & 2
||-----------------------------------|-----------------------------------||
||-----------------------------------|-----------------------------------||
||-----------------------------------|-----------------------------------||
||-------------------10-9----12------|-----------------------------------||
||------------------------10----9-10-|-------------------10-9----12------||
||-0-0-0-0-0-0-0-0-0-----------------|-8-8-8-8-8-8-8-8-8------10----10---||
pm . . . . . . . . .      .            . . . . . . . . .      .

Chorus: 
  Gtr. 1 & 2                                  
||----------------------------------|----------------------------------|
||----------------------------------|----------------------------------|
||----------------------------------|----------------------------------|
||----------------------------------|----------------------------------|
||-0000000000000000-----------------|-11111111111111111111111111111111-|
||-----------------0000000000000000-|----------------------------------|
pm ................................   ................................
					
  Gtr. 1
 |----------------------------------|----------------------------------|
 |----------------------------------|----------------------------------|
 |----------------------------------|----------------------------------|
 |----------------------------------|----------------------------------|
 |-00000000000000000000000000000000-|----------------------------------|
 |----------------------------------|-00000000000000000000000000000000-|
 | ................................   ................................ |
 |                                                                     |
 |Gtr. 2                                                               |
 |----------------------------------|----------------------------------|
 |-10------13------12------13-------|---------12------13---------------|
 |----------------------------------|-9-----------------------12-------|
 |----------------------------------|----------------------------------|
 |----------------------------------|----------------------------------|
 |----------------------------------|----------------------------------|

  Gtr. 1
 |----------------------------------|----------------------------------|
 |----------------------------------|----------------------------------|
 |----------------------------------|----------------------------------|
 |----------------------------------|----------------------------------|
 |----------------------------------|----------------------------------|
 |-11111111111111111111111111111111-|-33333333333333333333333333333333-|
 | ................................   ................................ |
 |                                                                     |
 |Gtr. 2                                                               |
 |----------------------------------|---------10-----------------------|
 |---------13------12------13-------|-----------------12------13-------|
 |-10-------------------------------|-12-------------------------------|
 |----------------------------------|----------------------------------|
 |----------------------------------|----------------------------------|
 |----------------------------------|----------------------------------|
[ Tab from: http://www.guitartabs.cc/tabs/d/death/one_thousand_eyes_tab.html ]
  Gtr. 1  
 |----------------------------------|----------------------------------|
 |----------------------------------|----------------------------------|
 |-2--------------------------------|----------------------------------|
 |-2--------------------------------|-2--------------------------------|
 |-0--------------------------------|-2--------------------------------|
 |----------------------------------|-0--------------------------------|
 |                                                                     |
 |Gtr. 2                                                               |
 |----------------------------------|----------------------------------|
 |----------------------------------|----------------------------------|
 |----------------------------------|----------------------------------|
 |---------9-------10------9--------|---------9-------10---------------|
 |-7--------------------------------|-10----------------------8--------|
 |----------------------------------|----------------------------------|
 |                                                                     |
 | gtr. 3                                                              | 
 |----------------------------------|----------------------------------|
 |---------12------13------12-------|---------12------13---------------|
 |-9--------------------------------|-12----------------------10-------|
 |----------------------------------|----------------------------------|
 |----------------------------------|----------------------------------|
 |----------------------------------|----------------------------------|

  Gtr. 1
 |----------------------------------|----------------------------------||
 |----------------------------------|----------------------------------||
 |----------------------------------|----------------------------------||
 |-3--------------------------------|-5--------------------------------||
 |-3--------------------------------|-5--------------------------------||
 |-1--------------------------------|-3--------------------------------||
 |                                                                     ||
 |Gtr. 2                                                               ||
 |----------------------------------|----------------------------------||
 |----------------------------------|----------------------------------||
 |----------------------------------|---------7------------------------||
 |---------9-------10------9--------|-----------------9-------10-------||
 |-7--------------------------------|-10-------------------------------||
 |----------------------------------|----------------------------------||
 |                                                                     ||
 | gtr 3.
 |----------------------------------|---------10-----------------------||
 |---------12------13------12-------|-----------------12------13-------||
 |-9--------------------------------|-12-------------------------------||
 |----------------------------------|----------------------------------||
 |----------------------------------|----------------------------------||
 |----------------------------------|----------------------------------||

Section E:                                                            
  Gtr. 1 & 2                                                        
||--------------------------------|----------------------------------------|
||--------------------------------|----------------------------------------|
||*-------------------------------|----------------------------------------|
||*----------------8-7-----10-----|---------------------8-7-----10---------|
||-2-2-2-2-2-2-2-2-----8-7-8------|-2-2-2-2-2-2-2-2-2-2-----8-7-8--7h8p7---|
||-0-0-0-0-0-0-0-0----------------|-0-0-0-0-0-0-0-0-0-0------------------8-|
pm . . . . . . . . . . . .          . . . . . . . . . . . . . .         A.h.

 |----------------------------|----------------------------------------||
 |----------------------------|----------------------------------------||
 |----------------------------|---------------------------------------*||
 |-------------8-7-----10-----|---------------------8-7-----10--------*||
 |-2-2-2-2-2-2-----8-7-8------|-2-2-2-2-2-2-2-2-2-2-----8-7-8--7---8---||
 |-0-0-0-0-0-0----------------|-0-0-0-0-0-0-0-0-0-0------------5-------||
pm . . . . . . . . . .          . . . . . . . . . . . . . .      A.h.

Solo:
  Gtr. 1   
||--------0----------0--------------|----------------------------------|
||-----------0-------0--------------|----------------------------------|
||---------------5---5--------------|-7--------------------------------|
||-7-----------------7--------------|-7-------------9/10-9-------------|
||-7-----------------8--------------|-5-------------7/8--7-------------|
||-5----------------(5)-------------|----------------------------------|
						      
						      (end Gtr. 1)
 |--------0----------0--------------|-----------------------------||
 |-----------0-------0--------------|-----------------------------||
 |---------------5---5--------------|-7---------------------------||
 |-7-----------------7--------------|-7-------------9/10-9--12----||
 |-7-----------------8--------------|-5-------------7/8--7--10----||
 |-5----------------(5)-------------|-----------------------------||

Gtr.2 (Solo)
||-13-12-10----------------------------------------------|
||----------13-12-10-------------------------------------|
||-------------------12-10-12-10-9----9------------------|
||---------------------------------12---12-10----9-------|
||--------------------------------------------12---------|
||-------------------------------------------------------|

		    h
 |-------12---13--13-17---13---12------------------------|
 |-/15------------------------------15---13---10---12----|
 |-------------------------------------------------------|
 |-------------------------------------------------------|
 |-------------------------------------------------------|
 |-------------------------------------------------------|

 |--------------------8-7----------------8-7------13-12-10-------------|
 |------------------------10-8---------------10-8----------13-12-10-12-|
 |--------7-10-9-7-------------10-9-7----------------------------------|
 |-7-9-10----------10-----------------10-------------------------------|
 |---------------------------------------------------------------------|
 |---------------------------------------------------------------------|

 |----------------10---12---13--------12-----------------|
 |-10---12---13------------------12--------12---13-------|
 |-------------------------------------------------------|
 |-------------------------------------------------------|
 |-------------------------------------------------------|
 |-------------------------------------------------------|

  tremolo picking (not every note is written)                    h p
 |-12-12-12-13-12-13-12-10-------10-10-12-10-12-10-------------------------|
 |-------------------------13-12-------------------13-12-10----------------|
 |---------------------------------------------------------10-9-7-9-7------|
 |--------------------------------------------------------------------10-9-|
 |-------------------------------------------------------------------------|
 |-------------------------------------------------------------------------|

   sweep       h  p              p                      p    p
 |-----12-13-10-12-10-------------------------------------------------|
 |---12---------------13-12-10-12-10----------------------------------|
 |-12--------------------------------12-10-12-10-9----10-9-------9----|
 |-------------------------------------------------12------12-10------|
 |--------------------------------------------------------------------|
 |--------------------------------------------------------------------|

						       (end solo)
 |---------------------------------------------------------------||
 |---------------------------------------------------------------||
 |---------------------------------------------------------------||
 |-7/10-10-10-9---9-9/12-12-12-10---10-10/14-14-14-15-14---14-14-||
 |---------------------------------------------------------------||
 |---------------------------------------------------------------||

repeat Section A
repeat Section B
repeat Section C
repeat Section D
repeat Chorus
End:
  Gtr. 1
||-----------------------------------|-----------------------------||
||-----------------------------------|-----------------------------||
||-2------7------4------5------------|-2---------------------------||
||-2------7------4------5------------|-2---------------------------||
||-0------5------2------3------------|-0---------------------------||
||-----------------------------------|-----------------------------||
||                                                                 ||
||Gtr. 2                                                           ||
||-----------------------------------|-----------------------------||
||-----------------------------------|-----------------------------||
||-----------------------------------|-----------------------------||
||--------12-----9------10-----------|-7---------------------------||
||-10--------------------------------|-----------------------------||
||-----------------------------------|-----------------------------||
||                                                                 ||
||gtr 3                                                            ||
||--------10-------------------------|-----------------------------||
||---------------12-----13-----------|-10--------------------------||
||-12--------------------------------|-----------------------------||
||-----------------------------------|-----------------------------||
||-----------------------------------|-----------------------------||
||-----------------------------------|-----------------------------||

GREETZ TO ALL CHOPPING DEATH-FANS OUT THERE. HOPE YOU ENJOY THIS TAB!!!
THANX TO CHUCK SCHULDINER FOR THE INFLUENCE HE HAS ON MY PLAYING.
	       === ROBIN VAN DER HARST SIGNING OFF ===

Version 2.0 Was Made Possible By 's Death Metal Tablature Site
Comments