Death - Leprosy Chords & Tabs

 

Leprosy Chords & Tabs

Death Chords & Tabs

Version: 1 Type: Tab 0 ratings
1 star 2 stars 3 stars 4 stars 5 stars
comments

Leprosy Tab

__________________________________________________________________
-DEATH - LEPROSY from the "Leprosy" CD (c) 1988 Relativity Records
-Transcribed by Chris Myhre. Version 1.1 Nov 98
-For questions, corrections, etc email me: bowel_ripper@hotmail.com
-For best print edit the left/right margins in page setup to make the tab fit the sheet
-Tuning: one step down (1:D, 2:A, 3:F, 4:C, 5:G, 6:D)
-Notation legend: . = palm mute; \ = slide down; ph = pinch harmonic

   gtr 1 x4			  gtr 1 x2
1>|gtr 2 x2----------------------|gtr 2 x4---------------------------------------------
2>|------------------------------|-----------------------------------------------------
3>|--------7--------------6------|-----------------------------------------------------
4>|8---9---7------7---8---6------|---------------------7--8-----7--8-------------------
5>|8---9---5------7---8---4------|---8--9-----8--9--5--------5-----------7--8-----7--8-
6>|6---7----------5---6----------|6--------6--------------------------5--------5-------

  -------------------|-------------------------------------------------------------------
  -------------------|-------------------------------------------------------------------
  -------------------|-------------------------------------------------------------------
  ----6--7-----6--7--|-------------------------------------------------------------------
  -4--------4--------|-------------------------------------------------------------------
  -------------------|555555555555999999444444888888888888888888888888333333333333777777-
		      ..................................................................

  stop here last time|----------x4------------|---------------------------------------x4
  -------------------|-----------'------------|----------------------------------------|
  -------------------|-----------'------------|-----4--5----------------5--4-----------|
  -------------------v-----------'4-3-1-3-----|3----4--5-5-2-----2-3----5--4-5-2-----2-|
  -------------------------------'--------4-3-|3----2--3-5-2-----2-3----3--2-5-2-----2-|
  -222222666666666666666666666666'------------|1---------3-0-----0-1---------3-0-----0-|
   ..............................
[ Tab from: http://www.guitartabs.cc/tabs/d/death/leprosy_tab.html ]
   whole riff x2					    __________ ____________________
  |---------------x2---------------x2---------------x2-----|   1      |   2               x2
  |----------------'----------------'----------------'-------------------------------------|
  |----------------'----------------'----------------'-------------------------------------|
  |----------------'----------------'------7766------'------6655-------6ph-5ph-------------|
  |------6655------'------5544------'557788----778877'446677----667766---------6ph-7ph-6ph-|
  |446677----667766'335566----556655'----------------'-------------------------------------|
   ................ ................ ......    ...... ......    ......    ph: gtr 2 only
   _______________ ______________
  |  1            |  2           |----------------------------------------x2---------------
  |------------------------------------------------------------------------'---------------
  |------------------------------------------------------------------------'---------------
  |--------5-------4------5-------4------5------4------5------4------------'---------------
  |22222222-222222--222222-222222--222222-222222-333333-333333-3333335--5--'4------5-------
  |------------------------------------------------------------------3--3--'-222222-222222-

  					     gtr 1 1st time:  |------------|
  							      |17-\--5--5--|
  							      |------3--3--|

  -----------------------------------------x2------------|-----------------------|
  ------------------------------------------'------------|-----------------------|
  ------------------------------------------'repeat first|-----------------------|
  ------------------------------------------'part of riff|2----6----3----5---5-3-|
  -4------5------4------5------4------2--2--'------------|2----6----3----5---5-3-|
  --222222-222222-333333-333333-3333330--0--'------------|0----4----1----3---3-1-|

  |----------------------------------------------------------------|
  |----------------------------------------------------------------|
  |----------------------------------------------------------------|
  |----------------------------------------------------------------|
  |------------------------------------------------------------5-3-|
  |0000000000000000444444444444444411111111111111113333333333333-1-|
   ............................................................

   gtr 3 plays the lead x2
   gtr 1 & 2 play riff x4
  |-----------------------------------------------------------------|(w/lead)---------------
  |-----------------------------------------------------------------|-----------------------
  |--------16--------------15--------------16--------------15-------|-----------------------
  |14--------------17--16----------14--------------17--16------15---|-----------------------
  |--------22222222--------11111111--------22222222--------1111-----|-----------------------
  |00000000--------33332222--------00000000--------33332222----1111-|3333333333332222222222-
				  		   __________________________ ____________
  ------------------------------------------------|      1                   |   2       x2
  ----------------------------------------------------------------------------------------|
  ----------------------------------------------------------------------------------------|
  ----------------------------------------------------------------------------4-3-----5---|
  -22111111111111----------------------------------22111111111111333333333333-2-1-----3---|
  ---------------1111111111113333333333332222222222---------------------------------------|

   now repeat first part of song and end with  4>|4--2----
					       5>|2--2----
					       6>|---0----

	Check out my personal tablature page where you can find all my newest tabs:

				http://home.no.net/bowelri
Comments