Death - Jealousy Chords & Tabs

 

Jealousy Chords & Tabs

Death Chords & Tabs

Version: 1 Type: Tab 0 ratings
1 star 2 stars 3 stars 4 stars 5 stars
comments

Jealousy Tab

   DEATH
        Jealousy
    from the album "Individual thoughts Patterns"

Tabbed by Outhmane Mouhammed Souleimane Bendiar (Sly)
E-mail Divasly@hotmail.com for any comments

Guitar1

Riff I          
 +---------------------------------------------------+
 |---------------------------------------------------|
 |---------------------------------------------------|
 |-8-7---7-6-----7---8---7------7-6---8---6---7---6--|
 |-----8-----7-5---5---5----7-8-----7---4---4---4----|
 +---------------------------------------------------+

Riff II         
 +------------------------+--------------------------+
 |------------------------|--------------------------|
 |------------------------|--------------------------|
 |-----------6--5h6p5-----|--------------5--4h5p4----|
 |-4---4-6-7----------7---|----3---3-5-6----------6--|
 +------------------------+--------------------------+

Riff III          
 +---------------+-----------------------------+
 |---------------|-----------------------------|
 |---------------|-----------------------------|
 |-------5-------|----5-5/7-7/8-8--5/7-7/8-8---|
 |-5h7h8---8-7---|-----------------------------|
 +---------------+-----------------------------+
    
Riff IV     
 +---------+-------------------------------|---------|-------------------------------|
 |---------|-------------------------------|---------|-------------------------------|
 |---------|-------------------------------|---------|-------------------------------|
 |-4---3---|-------------------------------|-4---3---|-------------------------------|
 |---5---4-|-------------------------------|---5---4-|-------------------------------|
 +---------+-3333-3333-2222-2222-2222-2222-+---------|-3333-3333-6666-6666-2222-2222-+
[ Tab from: http://www.guitartabs.cc/tabs/d/death/jealousy_tab.html ]
ends with:
 +---------+---------------------|
 |---------|---------------------|
 |---------|---------------------|
 |-4---3---|---------------------|
 |---5---4-|---------------------|
 +---------+-3333-3333-6666-6666-+


Riff V      
 +-------------+--------------+
 |-------------|--------------|
 |-------------|--------------|
 |-------------|--------------|
 |-----7-----6-|------7-----6-|
 +-444---444---+--555---555---+

Riff V*
 +------------------+---------------+
 |------------------|---------------|
 |------------------|---------------|
 |------------------|---------------|
 |-----7-------6----|-----7-------6-|
 +-444---44444---44-+-555---55555---+

Riff VI      
 +------------+
 |------------|
 |----5--4--7-|
 |-2--5--4--7-|
 |-2--3--2--5-|
 +-0----------+

end with :
 +------------------+
 |------------------|
 |----5--4--77--77--|
 |-2--5--4--77--77--|
 |-2--3--2--55--55--|
 +-0----------------+

Riff VII       
 +-----------------------------------------------------------------+
 |-----------------------------------------------------------------|
 |-----------------------------------------------------------------|
 |-----------------------------------------------------------------|
 |-----------------333-333-333-333-222-222-222-222-555-555-555-555-|
 +-000-000-000-000-------------------------------------------------+

Riff VIII      
 +----------------------------------------------------------------+
 |----------------------------------------------------------------|
 |-9------------9------------9------8-----------8-----------8-----|
 |-7-----9------7-----9------7---9--6-----8-----6-----8-----6---8-|
 |-7-777-7--777-7-777-7--777-7-7-7--6-666-6-666-6-666-6-666-6-6-6-|
 +----------------------------------------------------------------+

The song ends with : 
 +---------+----------------+
 |---------|----------------+
 |---------|----------------+
 |-4---3---|----------------+
 |---5---4-|-5----8----4----|
 |---------|-3----6----2----+

 +---------+
 |---------|
 |---------|
 |-4---3---|
 |---5---4-|
 +---------+
Comments