Death - Empty Words Chords & Tabs

 

Empty Words Chords & Tabs

Death Chords & Tabs

Version: 1 Type: Bass Tab 0 ratings
1 star 2 stars 3 stars 4 stars 5 stars
comments

Empty Words Bass Tab

/--------------------------------------------------------------------------
/ The following is the author's own interpertation of the song, to be used/
/ for private use and studying                                            /
/--------------------------------------------------------------------------
                         
DEATH - EMPTY WORDS

"SYMBOLIC"

Transcribed by: Luca 
For questions: luca.metropolis2000@dreamtheater.zzn.com

Tuning: Tune down one whole step


Guitar intro ~ no bass 
Riff 1 - Verse           
|-----------|---------|-----------|   
|-----------|---------|-----------| 
|-3-2-------|-3-2-----|-3-2-------|
|-----3-4-1-|-----3-4-|-----3-4-0-|

_______________   ___________________
 | 1,3             | 2.                 
|-----------------|--------------------|
|--3/5---5/6---5~-|--3/5---5/6---6/8~--| 
|-----------------|--------------------|
|-----------------|--------------------|

             ______________________________________
  Riff 2    | 1,2  
|---------|----------------------------------------| 
|---------|----------------------------------------|
|-0-------|-1-------------4------------------------|
|-----0---|-------1-------------------4------------|
|

Riff 3  (play twice)                                        
|------------|-----------------|------------|-----------------| 
|------------|-----------------|------------|-----------------|  
|------------|-------5-7-8-7-5-|------------|-------3-5-6-5-3-| 
|-0-5-6-7-6~-|-5-6-7-----------|-0-3-5-6-5~-|-3-5-6-----------|


[ Tab from: http://www.guitartabs.cc/tabs/d/death/empty_words_btab.html ]
Riff 4                                             
|------------------------------|----------------------------------|
|------------------------------|----------------------------------|
|------------------------------|----------------------------------|
|-00000000-1-00000000-3-0000-4-|-00000000-1-00000000-3-0000-4-----|

Play Riff 3 twice, then play Riff 4
Riff 5.a
|-----------------------|
|-----------------------| 
|-----------------------|
|-0---0--0-000000000000-|

Riff 5.b (play twice before Chorus start)
|------------------| 
|------------------|
|-7-8--5--/10-7-8--|
|------------------|


 Riff 6 - Chorus (play four times)
|----------------------------7----------------| 
|-----------------------5-------5--7-----9----|
|-7---------8--------------3----------5-----7-|
|---0000000----0-0-0-0------------------------|


Riff 7(play four times during solos)
|---------------------------------------------------------------| 
|---------------------------------------------------------------|
|---------------------------------8888888885555555555-----------|
|-55555555555555556666666666666666------------------------------|

Play Twice                            
|*--------------|-----------------*|
|*--------------|-----------------*| 
|--0------------|------------------|
|--------0------|-1------------3---|

Play four times
|*----------------|----------------||
|*----------------|----------------||
|-----------------|----------------||
|--0----------1---|-3-----------1--||



That's all, have fun!!

LET THE METAL FLOW
Comments