Death - Crystal Mountain Chords & Tabs

 

Crystal Mountain Chords & Tabs

Death Chords & Tabs

Version: 3 Type: Bass Tab

Crystal Mountain Bass Tab

   
                               Crystal Mountain                                 


                                                                           Death
Bass



     E  E  E  E  H           E  E  E  E  H           E  E  E  E  H         
F||-----------------------|-----------------------|-----------------------|
C||-----------------------|-----------------------|-----------------------|
G||-----------7--L--------|-----------6--L--------|-----------7--L--------|
D||--0--0--0--------------|--0--0--0--------------|--0--0--0--------------|


  Q    Q    Q    Q       E  E  E  E  H           E  E  E  E  H         
----------------------|-----------------------|-----------------------|
----------------------|-----------------------|-----------------------|
--2----1--------------|-----------7--L--------|-----------6--L--------|
------------1----3----|--0--0--0--------------|--0--0--0--------------|


   E  E  E   E  E  E  E  E     E  E  E  E  E  E  E   E   
--10--9--7------------------|---------------------------|
------------10--9--7--6-----|--------------6--7--9--10--|
-------------------------8--|--7--5--7--8---------------|
----------------------------|---------------------------|


  E  E  E  E  H           E  E  E  E  H           E  E  E  E  H         
-----------------------|-----------------------|-----------------------|
-----------------------|-----------------------|-----------------------|
-----------7--L--------|-----------6--L--------|-----------7--L--------|
--0--0--0--------------|--0--0--0--------------|--0--0--0--------------|


  Q    Q    Q    Q       E  E  E  E  H           E  E  E  E  H         
----------------------|-----------------------|-----------------------|
----------------------|-----------------------|-----------------------|
--2----1--------------|-----------7--L--------|-----------6--L--------|
------------1----3----|--0--0--0--------------|--0--0--0--------------|


  E  E  E  Q.     Q       Q    Q    Q    Q       H        H         
-----------------------|----------------------|--------------------|
-----------------------|----------------------|--------------------|
-----------7------L----|--2----1--------------|--0--------0--------|
--0--0--0--------------|------------1----3----|--------------------|


  Q.     Q.     Q       Q.     Q.     Q       Q.     Q.     Q     
--2------------------|---------------------|---------------------|
---------0------2----|----------------2----|----------------0----|
---------------------|---------0-----------|---------3-----------|
---------------------|--3------------------|--1------------------|


  H        H           Q.     Q.     Q       Q.     Q.     Q     
--------------------|--2------------------|---------------------|
--------------------|---------0-----------|----------------2----|
--0--------0--------|----------------3----|---------0-----------|
--------------------|---------------------|--3------------------|


                        |----3----|                                  
  Q.     Q.     Q       Q    Q    Q    H           W                 
---------------------|--------------------------|-------------------|
----------------0----|--0----2----3----0--------|--L----------------|
---------3-----------|--------------------------|-------------------|
--1------------------|--------------------------|-------------------|


                                           |----3----|              
  W                   H        H           Q    Q    Q    H         
-------------------|--------------------|--------------------------|
-------------------|--------------------|--0----2----3----0--------|
--4----------------|-----------3--------|--------------------------|
-------------------|--4-----------------|--------------------------|


  W                   W                   H        H         
-------------------|-------------------|--------------------|
--L----------------|-------------------|--------------------|
-------------------|-------------------|--4--------3--------|
-------------------|--2----------------|--------------------|


  H        H           Q.     Q.     Q       Q.     Q.     Q     
--------------------|--2------------------|---------------------|
--------------------|---------0------2----|----------------2----|
--0--------0--------|---------------------|---------0-----------|
--------------------|---------------------|--3------------------|


  Q.     Q.     Q       H        H           Q.     Q.     Q     
---------------------|--------------------|--2------------------|
----------------0----|--------------------|---------0-----------|
---------3-----------|--0--------0--------|----------------3----|
--1------------------|--------------------|---------------------|


  Q.     Q.     Q       Q.     Q.     Q       H        H         
---------------------|---------------------|--------------------|
----------------2----|----------------0----|-----------3--------|
---------0-----------|---------3-----------|--0-----------------|
--3------------------|--1------------------|--------------------|


  H        H           H        H           H        H         
--3-----------------|-----------5--------|--------------------|
-----------0--------|--2-----------------|-----------5--------|
--------------------|--------------------|--3-----------------|
--------------------|--------------------|--------------------|


   E  E  E  E  E  E  E  E      E  E  E  E   E  E  E  E   
---------------------------|----------------------------|
--10-----------9-----------|--10-----------10-----9-----|
------7--0--0-----7--0--0--|------7--0--0------7--------|
---------------------------|----------------------------|


   E  E  E  E  E  E  E  E      E  E  E  E   E  E  E  E     H        H         
---------------------------|----------------------------|--------------------|
--10-----------9-----------|--10-----------10-----9-----|-----------3--------|
------7--0--0-----7--0--0--|------7--0--0------7--------|--0-----------------|
---------------------------|----------------------------|--------------------|


  H        H           H        H           H        H         
--3-----------------|-----------5--------|--------------------|
-----------0--------|--2-----------------|-----------5--------|
--------------------|--------------------|--3-----------------|
--------------------|--------------------|--------------------|


   E  E  E  E  E  E  E  E      E  E  E  E   E  E  E  E   
---------------------------|----------------------------|
--10-----------9-----------|--10-----------10-----9-----|
------7--0--0-----7--0--0--|------7--0--0------7--------|
---------------------------|----------------------------|


   E  E  E  E  E  E  E  E      E  E  E  E   E  E  E  E     H        H         
---------------------------|----------------------------|--------------------|
--10-----------9-----------|--10-----------10-----9-----|-----------3--------|
------7--0--0-----7--0--0--|------7--0--0------7--------|--0-----------------|
---------------------------|----------------------------|--------------------|


  H        H           H        H           H        H         
--3-----------------|-----------5--------|--------------------|
-----------0--------|--2-----------------|-----------5--------|
--------------------|--------------------|--3-----------------|
--------------------|--------------------|--------------------|


   E  E  E  E  E  E  E  E      E  E  E  E   E  E  E  E   
---------------------------|----------------------------|
--10-----------9-----------|--10-----------10-----9-----|
------7--0--0-----7--0--0--|------7--0--0------7--------|
---------------------------|----------------------------|


   E  E  E  E  E  E  E  E      E  E  E  E   E  E  E  E     W.                
---------------------------|----------------------------|-------------------|
--10-----------9-----------|--10-----------10-----9-----|-------------------|
------7--0--0-----7--0--0--|------7--0--0------7--------|-------------------|
---------------------------|----------------------------|--0----------------|


  W.                  H.           H           W.                
-------------------|------------------------|-------------------|
-------------------|------------------------|-------------------|
-------------------|------------------------|-------------------|
--L----------------|--1------------L--------|--L----------------|


  E  E  E  E  E  E  E  E     E  E  E  E  E  E  Q     
--------------------------|-------------------------|
--------------------------|-------------------------|
--------------7--7--------|--------5-----8-----7----|
--0--0--0--0--------0--0--|--0--0-----6-----5-------|


  E  S S S S S S S S S S S S S S    S S S S E  E  H         
---------------------------------|-------------------------|
---------------------------------|-------------------------|
---------------------------------|----------5--0--7--------|
--0--0-0-0-0-0-0-0-0-0-0-0-0-0-0-|--0-0-0-0----------------|


  E  E  E  E  E  E  E  E     E  E  E  E  E  E  Q     
--------------------------|-------------------------|
--------------------------|-------------------------|
--------------------7--7--|--------5-----8-----7----|
--0--0--0--0--0--0--------|--0--0-----6-----5-------|


  E  S S S S S S S S S S S S S S    S S S S E  E  H         
---------------------------------|-------------------------|
---------------------------------|-------------------------|
---------------------------------|----------5--0--7--------|
--0--0-0-0-0-0-0-0-0-0-0-0-0-0-0-|--0-0-0-0----------------|


  E  E  E  E  E  E  E  E     E  E  E  E  E  E  Q     
--------------------------|-------------------------|
--------------------------|-------------------------|
--------------------7--7--|--------5-----8-----7----|
--0--0--0--0--0--0--------|--0--0-----6-----5-------|


  E  S S S S S S S S S S S S S S    S S S S E  E  H         
---------------------------------|-------------------------|
---------------------------------|-------------------------|
---------------------------------|----------5--0--7--------|
--0--0-0-0-0-0-0-0-0-0-0-0-0-0-0-|--0-0-0-0----------------|


  E  E  E  E  E  E  E  E     E  E  E  E  E  E  Q     
--------------------------|-------------------------|
--------------------------|-------------------------|
--------------------7--7--|--------5-----8-----7----|
--0--0--0--0--0--0--------|--0--0-----6-----5-------|


  E  S S S S S S S S S S S S S S    S S S S E  E  H         
---------------------------------|-------------------------|
---------------------------------|-------------------------|
---------------------------------|----------5--0--7--------|
--0--0-0-0-0-0-0-0-0-0-0-0-0-0-0-|--0-0-0-0----------------|


  W                W                   W                W                 
------------------------------------|------------------------------------|
------------------------------------|------------------------------------|
------------------------------------|------------------------------------|
--5----------------L----------------|--5----------------L----------------|


  W                W                   W                W                 
------------------------------------|------------------------------------|
------------------------------------|------------------------------------|
------------------------------------|--6----------------L----------------|
--4----------------L----------------|------------------------------------|


  W                W                   W                W                 
------------------------------------|------------------------------------|
------------------------------------|------------------------------------|
------------------------------------|------------------------------------|
--5----------------L----------------|--5----------------L----------------|


  W                W                   W                W                 
------------------------------------|------------------------------------|
------------------------------------|------------------------------------|
------------------------------------|--6----------------L----------------|
--4----------------L----------------|------------------------------------|


  W                   W                   W                   W                 
-------------------|-------------------|-------------------|-------------------|
-------------------|-------------------|-------------------|-------------------|
-------------------|--6----------------|-------------------|--7----------------|
--4----------------|-------------------|--5----------------|-------------------|


  W                   W                   W                   W                 
-------------------|-------------------|-------------------|-------------------|
-------------------|-------------------|-------------------|-------------------|
-------------------|--7----------------|--6----------------|--L----------------|
--7----------------|-------------------|-------------------|-------------------|

[ Tab from: http://www.guitartabs.cc/tabs/d/death/crystal_mountain_btab_ver_3.html ]
  W                   W                   W                   W                 
-------------------|-------------------|-------------------|-------------------|
-------------------|-------------------|-------------------|-------------------|
-------------------|--6----------------|-------------------|--7----------------|
--4----------------|-------------------|--5----------------|-------------------|


  W                   W                   W                   W                 
-------------------|-------------------|-------------------|-------------------|
-------------------|-------------------|-------------------|-------------------|
-------------------|--7----------------|--6----------------|--L----------------|
--7----------------|-------------------|-------------------|-------------------|


  E  E  E  E  H           E  E  E  E  H           E  E  E  E  H         
-----------------------|-----------------------|-----------------------|
-----------------------|-----------------------|-----------------------|
-----------7--L--------|-----------6--L--------|-----------7--L--------|
--0--0--0--------------|--0--0--0--------------|--0--0--0--------------|


  Q    Q    Q    Q       E  E  E  E  H           E  E  E  E  H         
----------------------|-----------------------|-----------------------|
----------------------|-----------------------|-----------------------|
--2----1--------------|-----------7--L--------|-----------6--L--------|
------------1----3----|--0--0--0--------------|--0--0--0--------------|


   E  E   E   E  E   E   E   E      E   E   E   E   E   E  E   E   
--10--9-------------------------|---------------------------------|
---------12--10--9--------------|--------------------------9--10--|
--------------------12--11------|------------------11--12---------|
----------------------------13--|--12--10--12--13-----------------|


  E  E  E  E  H           E  E  E  E  H           E  E  E  E  H         
-----------------------|-----------------------|-----------------------|
-----------------------|-----------------------|-----------------------|
-----------7--L--------|-----------6--L--------|-----------7--L--------|
--0--0--0--------------|--0--0--0--------------|--0--0--0--------------|


  Q    Q    Q    Q       E  E  E  E  H           E  E  E  E  H         
----------------------|-----------------------|-----------------------|
----------------------|-----------------------|-----------------------|
--2----1--------------|-----------7--L--------|-----------6--L--------|
------------1----3----|--0--0--0--------------|--0--0--0--------------|


  E  E  E  Q.     Q       Q    Q    Q    Q       H        H         
-----------------------|----------------------|--------------------|
-----------------------|----------------------|--------------------|
-----------7------L----|--2----1--------------|--0--------0--------|
--0--0--0--------------|------------1----3----|--------------------|


  Q.     Q.     Q       Q.     Q.     Q       Q.     Q.     Q     
--2------------------|---------------------|---------------------|
---------0------2----|----------------2----|----------------0----|
---------------------|---------0-----------|---------3-----------|
---------------------|--3------------------|--1------------------|


  H        H           Q.     Q.     Q       Q.     Q.     Q     
--------------------|--2------------------|---------------------|
--------------------|---------0-----------|----------------2----|
--0--------0--------|----------------3----|---------0-----------|
--------------------|---------------------|--3------------------|


                        |----3----|                                  
  Q.     Q.     Q       Q    Q    Q    H           W                 
---------------------|--------------------------|-------------------|
---------------------|--------------------------|-------------------|
---------3------5----|--5----7----8----5--------|--L----------------|
--1------------------|--------------------------|-------------------|


                                           |----3----|              
  W                   H        H           Q    Q    Q    H         
-------------------|--------------------|--------------------------|
-------------------|--------------------|--------------------------|
--4----------------|-----------3--------|--5----7----8----5--------|
-------------------|--4-----------------|--------------------------|


  W                   W                   H        H         
-------------------|-------------------|--------------------|
-------------------|-------------------|--------------------|
--L----------------|-------------------|--4--------3--------|
-------------------|--2----------------|--------------------|


  H        H           Q.     Q.     Q       Q.     Q.     Q     
--------------------|--2------------------|---------------------|
--------------------|---------0------2----|----------------2----|
--0--------0--------|---------------------|---------0-----------|
--------------------|---------------------|--3------------------|


  Q.     Q.     Q       H        H           Q.     Q.     Q     
---------------------|--------------------|--2------------------|
----------------0----|--------------------|---------0-----------|
---------3-----------|--0--------0--------|----------------3----|
--1------------------|--------------------|---------------------|


  Q.     Q.     Q       Q.     Q.     Q       H        H         
---------------------|---------------------|--------------------|
----------------2----|---------------------|-----------3--------|
---------0-----------|---------3------5----|--0-----------------|
--3------------------|--1------------------|--------------------|


  H        H           H        H           H        H         
--3-----------------|-----------5--------|--------------------|
-----------0--------|--2-----------------|-----------5--------|
--------------------|--------------------|--3-----------------|
--------------------|--------------------|--------------------|


   E  E  E  E  E  E  E  E      E  E  E  E   E  E  E  E   
---------------------------|----------------------------|
--10-----------9-----------|--10-----------10-----9-----|
------7--0--0-----7--0--0--|------7--0--0------7--------|
---------------------------|----------------------------|


   E  E  E  E  E  E  E  E      E  E  E  E   E  E  E  E     H        H         
---------------------------|----------------------------|--------------------|
--10-----------9-----------|--10-----------10-----9-----|-----------3--------|
------7--0--0-----7--0--0--|------7--0--0------7--------|--0-----------------|
---------------------------|----------------------------|--------------------|


  H        H           H        H           H        H         
--3-----------------|-----------5--------|--------------------|
-----------0--------|--2-----------------|-----------5--------|
--------------------|--------------------|--3-----------------|
--------------------|--------------------|--------------------|


   E  E  E  E  E  E  E  E      E  E  E  E   E  E  E  E   
---------------------------|----------------------------|
--10-----------9-----------|--10-----------10-----9-----|
------7--0--0-----7--0--0--|------7--0--0------7--------|
---------------------------|----------------------------|


   E  E  E  E  E  E  E  E      E  E  E  E   E  E  E  E     H        H         
---------------------------|----------------------------|--------------------|
--10-----------9-----------|--10-----------10-----9-----|-----------3--------|
------7--0--0-----7--0--0--|------7--0--0------7--------|--0-----------------|
---------------------------|----------------------------|--------------------|


  H        H           H        H           H        H         
--3-----------------|-----------5--------|--------------------|
-----------0--------|--2-----------------|-----------5--------|
--------------------|--------------------|--3-----------------|
--------------------|--------------------|--------------------|


   E  E  E  E  E  E  E  E      E  E  E  E   E  E  E  E   
---------------------------|----------------------------|
--10-----------9-----------|--10-----------10-----9-----|
------7--0--0-----7--0--0--|------7--0--0------7--------|
---------------------------|----------------------------|


   E  E  E  E  E  E  E  E      E  E  E  E   E  E  E  E     H        H         
---------------------------|----------------------------|--------------------|
--10-----------9-----------|--10-----------10-----9-----|-----------3--------|
------7--0--0-----7--0--0--|------7--0--0------7--------|--0-----------------|
---------------------------|----------------------------|--------------------|


  H        H           H        H           H        H         
--3-----------------|-----------5--------|--------------------|
-----------0--------|--2-----------------|-----------5--------|
--------------------|--------------------|--3-----------------|
--------------------|--------------------|--------------------|


   E  E  E  E  E  E  E  E      E  E  E  E   E  E  E  E   
---------------------------|----------------------------|
--10-----------9-----------|--10-----------10-----9-----|
------7--0--0-----7--0--0--|------7--0--0------7--------|
---------------------------|----------------------------|


   E  E  E  E  E  E  E  E      E  E  E  E   E  E  E  E     H        H         
---------------------------|----------------------------|--------------------|
--10-----------9-----------|--10-----------10-----9-----|-----------3--------|
------7--0--0-----7--0--0--|------7--0--0------7--------|--0-----------------|
---------------------------|----------------------------|--------------------|


  H        H           H        H           H        H         
--3-----------------|-----------5--------|--------------------|
-----------0--------|--2-----------------|-----------5--------|
--------------------|--------------------|--3-----------------|
--------------------|--------------------|--------------------|


   E  E  E  E  E  E  E  E      E  E  E  E   E  E  E  E   
---------------------------|----------------------------|
--10-----------9-----------|--10-----------10-----9-----|
------7--0--0-----7--0--0--|------7--0--0------7--------|
---------------------------|----------------------------|


   E  E  E  E  E  E  E  E      E  E  E  E   E  E  E  E     H        H         
---------------------------|----------------------------|--------------------|
--10-----------9-----------|--10-----------10-----9-----|-----------3--------|
------7--0--0-----7--0--0--|------7--0--0------7--------|--0-----------------|
---------------------------|----------------------------|--------------------|


  H        H           H        H           H        H         
--3-----------------|-----------5--------|--------------------|
-----------0--------|--2-----------------|-----------5--------|
--------------------|--------------------|--3-----------------|
--------------------|--------------------|--------------------|


   E  E  E  E  E  E  E  E      E  E  E  E   E  E  E  E   
---------------------------|----------------------------|
--10-----------9-----------|--10-----------10-----9-----|
------7--0--0-----7--0--0--|------7--0--0------7--------|
---------------------------|----------------------------|


   E  E  E  E  E  E  E  E      E  E  E  E   E  E  E  E     H        H         
---------------------------|----------------------------|--------------------|
--10-----------9-----------|--10-----------10-----9-----|-----------3--------|
------7--0--0-----7--0--0--|------7--0--0------7--------|--0-----------------|
---------------------------|----------------------------|--------------------|


  H        H           H        H           H        H          
--3-----------------|-----------5--------|--------------------||
-----------0--------|--2-----------------|-----------5--------||
--------------------|--------------------|--3-----------------||
--------------------|--------------------|--------------------||




Duration Legend
---------------
W - whole
H - half
Q - quarter
E - 8th
S - 16th
T - 32nd
X - 64th
. - note dotted
|-n-|  - n-tuplets


Tablature Legend
----------------
L - tied note
x - dead note
g - grace note
(n) - ghost note
> - accentuded note
NH - natural harmonic
AH - artificial harmonic
TH - tapped harmonic
SH - semi harmonic
PH - pitch harmonic
h - hammer on
p - pull off
b - bend
br - bendRelease
pb - preBend
pbr - preBendRelease
brb - bendReleaseBend
\n/ - tremolo bar dip
\n - tremolo bar dive
-/n - tremolo bar Release up
/n\ - tremolo bar inverted dip
/n - tremolo bar return
-\n - tremolo bar Release down
S - shift slide
s - legato slide
/ -  slide into from below or out of upwards
\ -  slide into from above or out of downwards
~ - vibrato
W - wide vibrato
tr - trill
TP - tremolo picking
T - tapping
S - slap
P - pop
< - fade in
^ - brush up
v - brush down