Death - 1000 Eyes Chords & Tabs

 

1000 Eyes Chords & Tabs

Death Chords & Tabs

Version: 4 Type: Tab 1 rating
1 star 2 stars 3 stars 4 stars 5 stars
comments

1000 Eyes Tab

   
if any guestions or if u see the tab is not right my email is gone_with_the_wind16407@hotmail.com



..  - palm mute          /  - slide up to
 \  - slide down to      ~  - vibrato
 h  - hammer on          b  - bend
 p  - pull off            Suffixes for bend
                          ph - pinch harmonic
                           f - full bend    h - half bend
*  - see comment           r - release      t - tap bend
X  - percussion mute       ~ - vibrato bend
@  - slight palm mute     () - ghost note, sustained note

Tune Gtr to D (One Whole Step Down)

--1000 EYES--

|Riff A|
|-----------------------------|----------------------------|
|-----------------------------|----------------------------|
|-----------------------------|----------------------------|
|---------9-------------------|---------7------------------|
|---------7---10--------------|---------5---8--------------|
|-0-0-0-0---------8-8-8-8-5-5-|-0-0-0-0--------6-6-6-6-3-3-|
| . . . .         . . . . . .   . . . .        . . . . . . |
|-----------------------------|----------------------------|
|-----------------------------|----------------------------|
|-----------------------------|----------------------------|
|---------9-------------------|---------7------------------|
|---------7---10--------------|---------5---8--------------|
|-0-0-0-0---------8-8-8-8-5-5-|-5-5-5-5--------6-6-6-6-3-3-|
  . . . .         . . . . . .   . . . .        . . . . . .

|-----------------------------|-----------------------------|
|-----------------------------|-----------------------------|
|-----------------------------|-----------------------------|
|---------9-------------------|---------9-------------------|
|---------7---6---------------|---------7---10--------------|
|-0-0-0-0--------4-4-4-4-1-1--|-0-0-0-0---------8-8-8-8-5-5-|
| . . . .        . . . . . .    . . . .         . . . . . . |
|-----------------------------|-----------------------------|
|-----------------------------|-----------------------------|
|-----------------------------|-----------------------------|
|---------9-------------------|---------9-------------------|
|---------7---6---------------|---------7---8---------------|
|-0-0-0-0--------4-4-4-4-5-5--|-5-5-5-5--------6-6-6-6-3-3--|
  . . . .        . . . . . .    . . . .        . . . . . .


Play Riff A a total of one time.


 |Riff B|
||----------------------------------------------|
||----------------------------------------------|
||:---------------------------------------------|
||:---------9-----------10---10---9--------12---|
||--0-0-0-0-7---0-0-0-0-7----7----7---10---10---|
||------------------------------------8---------|
||  . . . .     . . . .                         |
||----------------------------------------------|
||----------------------------------------------|
||----------------------------------------------|
||--------9-----------10---10---9---------------|
||--0--0--7---0-0-0-0-7----7----7---10---12-----|
||----------------------------------8----10-----|
   .  .      . . . .
 |----------------------------------------------||
 |----------------------------------------------||
 |----------------------------------------------||
 |----------9-----------10---10---9--------12---||
 |--0-0-0-0-7---0-0-0-0-7----7----7---10---10---||
 |------------------------------------8---------||
 |  . . . .     . . . .                         ||
 |----------------------------------------------||
 |----------------------------------------------||
 |---------------------------------------------:||
 |--------9-----------10---10---9--------------:||
 |--0--0--7---0-0-0-0-7----7----7---10----------||
 |----------------------------------8-----------||
    .  .      . . . .


Play Riff B a total of one time.


 |Riff B.1|
||----------------------------------------------|
||----------------------------------------------|
||:---------------------------------------------|
||:---------9-----------10---10---9--------12---|
||--0-0-0-0-7---0-0-0-0-7----7----7---10---10---|
||------------------------------------8---------|
||  . . . .     . . . .                         |
||----------------------------------------------|
||----------------------------------------------|
||----------------------------------------------|
||--------9-----------10---10---9---------------|
||--0--0--7---0-0-0-0-7----7----7---10---12-----|
||----------------------------------8----10-----|
   .  .      . . . .
 |----------------------------------------------||
 |----------------------------------------------||
 |----------------------------------------------||
 |----------9-----------10---10---9--------12---||
 |--0-0-0-0-7---0-0-0-0-7----7----7---10---10---||
 |------------------------------------8---------||
 |  . . . .     . . . .                         ||
 |----------------------------------------------||
 |----------------------------------------------||
 |---------------------------------------------:||
 |--------9-----------10---10---9--------a.h.--:||
 |--0--0--7---0-0-0-0-7----7----7---10---10~----||
 |----------------------------------8-----------||
    .  .      . . . .


Play Riff B.1 a total of one time.


 |Riff C|
||----------------------------------|---------------------------------||
||----------------------------------|---------------------------------||
||:---------------------------------|---------------------------------||
||:---------------------------------|---------------------------------||
||--5---2---------------------------|-3---2------------3--2-----5-----||
||--3---0---0-0-0-0-0-0-0-0-0-0-0-0-|-1---0---0-0-0-0--------3--------||
||      .   . . . . . . . . . . . .       .   . . . .                 ||
||----------------------------------|---------------------------------||
||----------------------------------|---------------------------------||
||----------------------------------|--------------------------------:||
||----------------------------------|--------------------------------:||
||----------------------------------|---------------------------------||
||--4-4-4-4-4-4-4-4-4-4-4-4-4-4-4-4-|-1-1-1-1-1-1-1-1-1-1-1-1-1-1-1-1-||
    . . . . . . . . . . . . . . . .   . . . . . . . . . . . . . . . .


Play Riff C a total of 4 times.


|Riff D|
|-------------------------------------------------------|
|-------------------------------------------------------|
|:-9----------------------------------------------------|
|:-9----------------------------------------------------|
|--7----------------------------------------------------|
|--0----------------------------------------------------|
|                                                       |
|  t p p h p h  t p p h p h  t p p h p h  t p p h p h   |
|-------------------------------------------------------|
|--12_8_5_8_5_8-12_8_5_8_5_8-12_8_5_8_5_8-12_8_5_8_5_8--|
|:------------------------------------------------------|
|:------------------------------------------------------|
|-------------------------------------------------------|
|-------------------------------------------------------|

|-------------------------------------------------------|
|-------------------------------------------------------|
|--6----------------------------------------------------|
|--6----------------------------------------------------|
|--4----------------------------------------------------|
|-------------------------------------------------------|
|                                                       |
|  t p p h p h  t p p h p h  t p p h p h  t p p h p h   |
|-------------------------------------------------------|
|-------------------------------------------------------|
|--13_9_6_9_6_9-13_9_6_9_6_9-13_9_6_9_6_9-13_9_6_9_6_9--|
|-------------------------------------------------------|
|-------------------------------------------------------|
|-------------------------------------------------------|

|-------------------------------------------------------|
|-------------------------------------------------------|
|-------------------------------------------------------|
|--6----------------------------------------------------|
|--6----------------------------------------------------|
|--4----------------------------------------------------|
|                                                       |
|  t p p h p h  t p p h p h  t p p h p h  t p p h p h   |
|--11_7_4_7_4_7-11_7_4_7_4_7-11_7_4_7_4_7-11_7_4_7_4_7--|
|-------------------------------------------------------|
|-------------------------------------------------------|
|-------------------------------------------------------|
|-------------------------------------------------------|
|-------------------------------------------------------|

|-------------------------------------------------------|
|-------------------------------------------------------|
|--8---------------------------------------------------:|
|--8---------------------------------------------------:|
|--6----------------------------------------------------|
|--6----------------------------------------------------|
|                                                       |
|  t p p h p h  t p p h p h  t p p h p h  t p p h p h   |
|-------------------------------------------------------|
|--11_7_4_7_4_7-11_7_4_7_4_7-11_7_4_7_4_7-11_7_4_7_4_7--|
|------------------------------------------------------:|
|------------------------------------------------------:|
|-------------------------------------------------------|
|-------------------------------------------------------|


Play Riff D a total of one time.


 |Riff E|
||----------------------------------------------------------||
||----------------------------------------------------------||
||:---------------------------------------------------------||
||:----------------------------10---9--------12-------------||
||--------------------------------------10--------9---10~---||
||--0--0--0--0--0--0--0--0--0-------------------------------||
||  .  .  .  .  .  .  .  .  .                               ||
||----------------------------------------------------------||
||----------------------------------------------------------||
||---------------------------------------------------------:||
||---------------------------------------------------------:||
||-----------------------------10---9--------12-------------||
||--0--0--0--0--0--0--0--0--0-----------10--------10~-------||
    .  .  .  .  .  .  .  .  .


Play Riff E a total of 4 times.


|Riff F|
|-----------------------------------|-----------------------------------|
|-----------------------------------|-----------------------------------|
|:----------------------------------|-----------------------------------|
|:-2222222222222222-----------------|-33333333333333333333333333333333--|
|--00000000000000002222222222222222-|-11111111111111111111111111111111--|
|------------------0000000000000000-|-----------------------------------|
   ................................   ................................
[ Tab from: http://www.guitartabs.cc/tabs/d/death/1000_eyes_tab_ver_4.html ]
|-----------------------------------|-----------------------------------|
|-----------------------------------|-----------------------------------|
|-----------------------------------|-----------------------------------|
|--22222222222222222222222222222222-|-----------------------------------|
|--00000000000000000000000000000000-|-22222222222222222222222222222222--|
|-----------------------------------|-00000000000000000000000000000000--|
   ................................   ................................

|-----------------------------------|-----------------------------------|
|--10------13------12------13-------|---------12------13----------------|
|-----------------------------------|-9-----------------------12--------|
|-----------------------------------|-----------------------------------|
|-----------------------------------|-----------------------------------|
|-----------------------------------|-----------------------------------|

|-----------------------------------|-----------------------------------|
|-----------------------------------|-----------------------------------|
|-----------------------------------|-----------------------------------|
|-----------------------------------|-----------------------------------|
|--33333333333333333333333333333333-|-55555555555555555555555555555555--|
|--11111111111111111111111111111111-|-33333333333333333333333333333333--|
   ................................   ................................

|-----------------------------------|---------10------------------------|
|----------13------12------13-------|-----------------12------13--------|
|--10-------------------------------|-12--------------------------------|
|-----------------------------------|-----------------------------------|
|-----------------------------------|-----------------------------------|
|-----------------------------------|-----------------------------------|

|-----------------------------------|-----------------------------------|
|-----------------------------------|-----------------------------------|
|--2--------------------------------|-----------------------------------|
|--2--------------------------------|-2---------------------------------|
|--0--------------------------------|-2---------------------------------|
|-----------------------------------|-0---------------------------------|

|-----------------------------------|-----------------------------------|
|-----------------------------------|-----------------------------------|
|-----------------------------------|-----------------------------------|
|----------9-------10------9--------|---------9-------10----------------|
|--7--------------------------------|-10----------------------8---------|
|-----------------------------------|-----------------------------------|

|-----------------------------------|-----------------------------------|
|----------12------13------12-------|---------12------13----------------|
|--9--------------------------------|-12----------------------10--------|
|-----------------------------------|-----------------------------------|
|-----------------------------------|-----------------------------------|
|-----------------------------------|-----------------------------------|

|-----------------------------------|-----------------------------------|
|-----------------------------------|-----------------------------------|
|-----------------------------------|-----------------------------------|
|--3--------------------------------|-5---------------------------------|
|--3--------------------------------|-5---------------------------------|
|--1--------------------------------|-3---------------------------------|

|-----------------------------------|-----------------------------------|
|-----------------------------------|-----------------------------------|
|-----------------------------------|---------7-------------------------|
|----------9-------10------9--------|-----------------9-------10--------|
|--7--------------------------------|-10--------------------------------|
|-----------------------------------|-----------------------------------|

|-----------------------------------|---------10------------------------|
|----------12------13------12-------|-----------------12------13--------|
|--9--------------------------------|-12--------------------------------|
|-----------------------------------|-----------------------------------|
|-----------------------------------|-----------------------------------|
|-----------------------------------|-----------------------------------|


Play Riff F a total of one time.


 |Riff G|
||---------------------------------|-----------------------------------------||
||---------------------------------|-----------------------------------------||
||:-------------------------10-----|-----------------------------10----------||
||:-----------------8-7-----10-----|---------------------8-7-----10----------||
||--2-2-2-2-2-2-2-2-----8-7-8------|-2-2-2-2-2-2-2-2-2-2-----8-7-8--7_8_7----||
||--0-0-0-0-0-0-0-0----------------|-0-0-0-0-0-0-0-0-0-0-------------h-p--8~-||
||  . . . . . . . . . . . .          . . . . . . . . . . . . . .         A.h.||
||                                                                           ||
||---------------------------------|-----------------------------------------||
||---------------------------------|-----------------------------------------||
||----------------------10---------|-----------------------------10---------:||
||--------------8-7-----10---------|---------------------8-7-----10-7-------:||
||--2-2-2-2-2-2-----8-7-8----------|-2-2-2-2-2-2-2-2-2-2-----8-7-8--7---8~---||
||--0-0-0-0-0-0--------------------|-0-0-0-0-0-0-0-0-0-0------------5--a.h.--||
    . . . . . . . . . .              . . . . . . . . . . . . . .


Play Riff G a total of 2 times.


 |Riff H| |Let Ring|
||---------0-------------||0--------|---------------------------------||
||------------0----------||0--------|---------------------------------||
||:--------------5-------||5--------|-7-------------9/10-9------------||
||:-7---------------7----||7--------|-7-------------9/10-9------------||
||--7------------------8-||8--------|-5-------------7/8--7------------||
||--5-------------------------------|---------------sl----------------||
||                                                                    ||
||---------0-------------||0--------|---------------------------------||
||------------0----------||0--------|---------------------------------||
||---------------5-------||5--------|-7-------------9/10-7--7/12-12--:||
||--7---------------7----||7--------|-7-------------9/10-7--7/12-12--:||
||--7------------------8-||8--------|-5-------------7/8--5--5/10-10---||
||--5-------------------------------|---------------sl------sl--------||


Play Riff H a total of 2 times.


|Solo|
|-13-12-10------------------------------------------------------------------|
|----------13-12-10---------------------------------------------------------|
|-------------------12-10-12-10-9----9--------------------------------------|
|---------------------------------12---12-10----9---------------------------|
|--------------------------------------------12-----------------------------|
|---------------------------------------------------------------------------|

|-------12---13--13_17---13---12--------------------------------------------|
|-/15--------------h---------------15---13---10---12------------------------|
|sl-------------------------------------------------------------------------|
|---------------------------------------------------------------------------|
|---------------------------------------------------------------------------|
|---------------------------------------------------------------------------|

|---------------------8-7----------------8-7------13-12-10------------------|
|-------------------------10-8---------------10-8----------13-12-10-12------|
|---------7-10-9-7-------------10-9-7---------------------------------------|
|--7-9-10----------10-----------------10------------------------------------|
|---------------------------------------------------------------------------|
|---------------------------------------------------------------------------|

|-----------------10---12---13--------12------------------------------------|
|--10---12---13------------------12--------12---13--------------------------|
|---------------------------------------------------------------------------|
|---------------------------------------------------------------------------|
|---------------------------------------------------------------------------|
|---------------------------------------------------------------------------|

|--12-12-12-13-12-13-12-10-------10-10-12-10-12-10--------------------------|
|--------------------------13-12-------------------13-12-10-----------------|
|----------------------------------------------------------10-9-7_9_7-------|
|----------------------------------------------------------------h-p--10-9--|
|---------------------------------------------------------------------------|
|---------------------------------------------------------------------------|

|------12-13-10_12_10-------------------------------------------------------|
|----12--------h--p---13-12-10-12_10----------------------------------------|
|--12----------------------------p---12-10-12-10-9----10_9-------9----------|
|--------------------------------------------------12---p--12_10------------|
|------------------------------------------------------------p--------------|
|---------------------------------------------------------------------------|

|---------------------------------------------------------------------------|
|---------------------------------------------------------------------------|
|---------------------------------------------------------------------------|
|--7/10-10-10-9---9-9/12-12-12-10---10-10/14-14-14-15-14---14-14------------|
|--sl---------------sl------------------sl----------------------------------|
|---------------------------------------------------------------------------|


Repeat Riff B   a total of one time.
Repeat Riff B.1 a total of one time.
Repeat Riff B   a total of one time.
Repeat Riff B.1 a total of one time.
Repeat Riff C   a total of 4 times.
Repeat Riff D   a total of one time.
Repeat Riff E   a total of 4 times.
Repeat Riff F   a total of 1/2 time.


|rit      .      .      .             .|                 |Fade Out|
|-----------------------------------|-----------------------------|
|-----------------------------------|-----------------------------|
|--2------7------4------5-----------|-2"--------------------------|
|--2------7------4------5-----------|-2"--------------------------|
|--0------5------2------3-----------|-0"--------------------------|
|-----------------------------------|-----------------------------|
|                                                                 |
|-----------------------------------|-----------------------------|
|-----------------------------------|-----------------------------|
|-----------------------------------|-----------------------------|
|---------12-----9------10----------|-7---------------------------|
|--10-------------------------------|-----------------------------|
|-----------------------------------|-----------------------------|
|                                                                 |
|---------10------------------------|-----------------------------|
|----------------12-----13----------|-10--------------------------|
|--12-------------------------------|-----------------------------|
|-----------------------------------|-----------------------------|
|-----------------------------------|-----------------------------|
|-----------------------------------|-----------------------------|
Comments