Death - 1000 Eyes Chords & Tabs

 

1000 Eyes Chords & Tabs

Death Chords & Tabs

Version: 1 Type: Bass Tab 0 ratings
1 star 2 stars 3 stars 4 stars 5 stars
comments

1000 Eyes Bass Tab

/--------------------------------------------------------------------------
/ The following is the author's own interpertation of the song, to be used/
/ for private use and studying                                            /
/--------------------------------------------------------------------------
			   
DEATH

1000 EYES

"SYMBOLIC"
			

Transcribed by Luca
For any questions: luca.metropolis2000.dreamtheater.zzn.com

Tuning: Tune down one whole step


Riff 0 - Intro
||-----------------------------|----------------------------||
||-----------------------------|----------------------------||
||---------7---10--------------|---------5---8--------------||
||-0-0-0-0---------8-8-8-8-5-5-|-0-0-0-0--------6-6-6-6-6-6-||

||-----------------------------|----------------------------||
||-----------------------------|----------------------------||
||---------7---10--------------|---------5---8--------------||
||-0-0-0-0---------8-8-8-8-5555|-55555555-------6-6-6-6-6-6-||

||----------------------------|-----------------------------|
||----------------------------|-----------------------------|
||---------7---6--------------|---------7---10--------------|
||-0-0-0-0--------4-4-4-4-0-0-|-0-0-0-0---------8-8-8-8-5-5-|

 |----------------------------|---------------------------||
 |----------------------------|---------------------------|| 
 |---------7---6--------------|---------7---8-------------||
 |-0-0-0-0--------4-4-4-4-4-4-|-0-0-0-0-------6-6-6-6-6-6-||

Riff 1 - Verse			       1. 
||*---------------------------|--------------------------*|
||*---------------------------|--------------------------*|
||-0000-7--0000-7--7--7----10-|-0-0-7--0000-7--7--7-------|
||----------------------8-----|---------------------8--10-|

  2. 
 |---------------------------||
 |---------------------------||
 |-0-0-7--0000-7--7--7-------|| 
 |---------------------8-----||

Play Riff 1 again and substitute 2. (above) with 3. (below)

  3. 
 |---------------------------||
 |---------------------------||
 |-0-0-7--0000-7--7--7-------|| 
 |---------------------8--10-||

Riff 2 (play 4 times)
||-------------------|-------------------|----------------------------------||
||-------------------|-------------------|----------------------------------||
||-------------------|-----------3-2---5-|----------------------------------||
||-3--0-000000000000-|-1--0-0000-----3---|-44444444444444441111111111111111-||

Riff 3 
"... a worldwide fool proof cage. . ."
||------------------|------------------|-----------------|-----------------||
||------------------|------------------|-----------------|-----------------||
||------------------|-4-4--------------|-----------------|-6-6-------------||
||-0-0--------------|------------------|-4-4-------------|-----------------||


Riff 4 Pre - Chorus (play 4 times)
"Privacy and intimacy. . . as we know it will be a memory..." ||-----------------------------------|-----------------------------------||
||-------------------10-9----12------|-----------------------------------||
||------------------------10----9-10-|-------------------10-9----12------||
||-0-0-0-0-0-0-0-0-0-----------------|-8-8-8-8-8-8-8-8-8------10----10---||


[ Tab from: http://www.guitartabs.cc/tabs/d/death/1000_eyes_btab.html ]
Once all together                    "Livin' on a pupil of 1000 eyes... "
||----------------------------------|----------------------------------|
||----------------------------------|----------------------------------|
||-0000000000000000-----------------|-11111111111111111111111111111111-|
||-----------------0000000000000000-|----------------------------------|

Then only rhythm guitar and bass during Chuck's solo					
Post-Chorus
|----------------------------------|
|----------------------------------|
|-0000000000000000-----------------|
|-----------------0000000000000000-|

|----------------------------------|----------------------------------|
|----------------------------------|----------------------------------|
|----------------------------------|----------------------------------|
|-11111111111111111111111111111111-|-33333333333333333333333333333333-|


At the 2nd chorus play this at the end of the above part
|----------------------------------|----------------------------------|      |----------------------------------|----------------------------------|
|-0--------------------------------|----------------------------------|
|----------------------------------|-0--------------------------------|

|----------------------------------|----------------------------------||
|----------------------------------|----------------------------------||
|----------------------------------|----------------------------------||
|-1--------------------------------|-3--------------------------------||


Riff 5 After 1st chorus                                                        ||*-------------------------------|----------------------------------------|
||*----------------8-7------------|---------------------8-7----------------|
||---------------------8-7-8------|-------------------------8-7-8--7h8p7---|
||-0-0-0-0-0-0-0-0----------------|-0-0-0-0-0-0-0-0-0-0------------------8-|
 
|----------------------------|---------------------------------------*||
|-------------8-7------------|---------------------8-7---------------*||
|-----------------8-7-8------|-------------------------8-7-8------8---||  |-0-0-0-0-0-0----------------|-0-0-0-0-0-0-0-0-0-0------------5-------||

 During solo play this. . .						
|----------------------------------|----------------------------------|
|---------9-------10------9--------|---------9-------10---------------|
|-7--------------------------------|-10----------------------8--------|
|----------------------------------|----------------------------------|

|----------------------------------|---------7------------------------||
|---------9-------10------9--------|-----------------9-------10-------||
|-7--------------------------------|-10-------------------------------||
|----------------------------------|----------------------------------||

Last Post-Chorus
|----------------------------------|
|----------------------------------|
|-0000000000000000-----------------|
|-----------------0000000000000000-|

|----------------------------------|----------------------------------|
|----------------------------------|----------------------------------|
|----------------------------------|----------------------------------|
|-11111111111111111111111111111111-|-33333333333333333333333333333333-|

End
"we are enslaved now"
 |----------------------------------|----------------------------------|
 |----------------------------------|----------------------------------|
 |---------------0------------------|----------------------------------|
 |-3----------------------------0---|-------1------33333333333333333333|

That's all, have fun!

LET THE METAL FLOW!
Comments