Deal - Rise Up Chords & Tabs

 

Rise Up Chords & Tabs

Deal Chords & Tabs

Version: 1 Type: Tab 0 ratings
1 star 2 stars 3 stars 4 stars 5 stars
comments

Rise Up Tab

   
Artist/The Deal
Song/Rise Up
Albulm/Yesterday,Today and Forever/Cutthroat
Website/www.thedealrock.com


Riff A
|------------------------------------------------|
|------------------------------------------------|
|------------------------------------------------|
|-2-2-2-2-2-2-2-2-2------5-5-5-5------9-9-9-9----|
|-2-2-2-2-2-2-2-2-2------5-5-5-5------9-9-9-9----|
|-0-0-0-0-0-0-0-0-0------3-3-3-3------7-7-7-7----|

Riff B
|------------------------------------------------------------------------|
|------------------------------------------------------------------------|
|-x-x-----x-x------x-x-x-x-x-x------x-x-----x-x------x-x-----x-x---------|
|-2-2--2--2-2--2---2-2-2-2-2-2--2---5-5--5--5-5--5---9-9--9--9-9--9------|
|-2-2--2--2-2--2---2-2-2-2-2-2--2---5-5--5--5-5--5---9-9--9--9-9--9------|
|-0-0--0--0-0--0---0-0-0-0-0-0--0---3-3--3--3-3--3---7-7--7--7-7--7------|

Riff C
|-------------------------------------------------------------------|
|-------------------------------------------------------------------|
|------------------x-x-x-----------x-x-x--------x-x-x---------------|
|-2--2------2--2---2-2-2---2--2----2-2-2---2-2--2-2-2---9-9---7-7---|
|-2--2------2--2---2-2-2---2--2----2-2-2---2-2--2-2-2---9-9---7-7---|
|-0--0------0--0---0-0-0---0--0----0-0-0---0-0--0-0-0---7-7---5-5---|

Riff D
|----------------------------------------------------|
|----------------------------------------------------|
|----------------------------------------------------|
|-2-2-2-2-2-2-2-2-----5-5-5-5----9-9---7-7-7---------|
|-2-2-2-2-2-2-2-2-----5-5-5-5----9-9---7-7-7---------|
|-0-0-0-0-0-0-0-0-----3-3-3-3----7-7---5-5-5---------|
[ Tab from: http://www.guitartabs.cc/tabs/d/deal/rise_up_tab.html ]
Riff E
|-----------------------------------------------------|
|-5-5-5-----10----------------------------------------|
|-4-4-4------9-----9-9------4-4-4-4-----2-2-2-2-------|
|-2-2-2------7-----9-9------4-4-4-4-----2-2-2-2-------|
|------------------7-7------2-2-2-2-----0-0-0-0-------|
|-----------------------------------------------------|

Riff F
|---------------------------------------------------------|
|---------------------------------------------------------|
|-5-5-5-5------7-7-7-7------9-9-9-9-9-9-9-9---------------|
|-5-5-5-5------7-7-7-7------9-9-9-9-9-9-9-9---------------|
|-3-3-3-3------5-5-5-5------7-7-7-7-7-7-7-7---------------|
|---------------------------------------------------------|

Riff G
|-----------------------|
|-----------------------|
|-----------------------|
|-2-----------2---------|
|-2-----------2---------|
|-0-----------0---------|

Riff H
|----------------------------------------------------------|
|----------------------------------------------------------|
|----------------------------------------------------------|
|-2-2-2-2-2-2-2-2----5-5-5-5------9-----7--------2---------|
|-2-2-2-2-2-2-2-2----5-5-5-5------9-----7--------2---------|
|-0-0-0-0-0-0-0-0----3-3-3-3------7-----5--------0---------|

Order 

Intro/          Riff A(play 4 times)Riff B(play 2 times)Riff C(play 1 time)

Pre Verse/      Riff D(play 4 times)

Verse/          Riff E(play 4 times)

Chourus/        Riff F(play 4 times)Riff G(play 1 time)

Verse/          Riff E(play 4 times)

Chourus/        Riff F(play 4 times) Riff G(play about 4 times)

Break/          No Guitar(You Gotta Face The World)

Outro/          Riff D (play 3 times) Riff H(play 1 time)


That's it,tell me what you think. Please rate.
Thanks.

StandYourGround
Comments