Deaf Pedestrians - 15 Beers Ago Chords & Tabs

 

15 Beers Ago Chords & Tabs

Deaf Pedestrians Chords & Tabs

Version: 1 Type: Tab 0 ratings
1 star 2 stars 3 stars 4 stars 5 stars
comments

15 Beers Ago Tab

This is my first tab.  This song is wicked easy to play.

Intro

----------------------------------------|
----------------------------------------|
----------------------------------------|
99999999-9------------------------------|
99999999-9------------------------------|
77777777-7------------------------------|
             It was.....
Verse

----------------------------------------|
----------------------------------------|
--------------(strum)-------------------|
9-------------------------------------7-|
9-play this until the last few words--7-|
7-------------------------------------5-|
15 beers ago.................was with you

Repeat this till the verse goes like "Oh, and this is how you repay for for my..."  the 
it goes like this

----------------------------------------------------------|
----------------------------------------------------------|
----------------------------------------------------------|
---------5x----------------4x-------------9-9-9-9-4-44444-|
---------5x----------------4x-------------9-9-9-9-4-44444-|
---------3x----------------2x-------------7-7-7-7-2-22222-|
Oh, and this is how you repay me for my

Then replay the verse until the guy sings "And this is how you're leavin' me, oh!"  Then its the chorus
[ Tab from: http://www.guitartabs.cc/tabs/d/deaf_pedestrians/15_beers_ago_tab.html ]
-----------------------------------|
-----------------------------------|
-----------------------------------|
-9-9x----7-7x--5-5-5-5-5-4-4-4-4---|  x4
-9-9x----7-7x--5-5-5-5-5-4-4-4-4---|
-7-7x----5-5x--3-3-3-3-3-2-2-2-2---|
 Take    Me    Outta the world (1st and 3rd time)
(Don't   Need  Another   Go)(2nd and 4th time)

------------------------------------------|
------------------------------------------|
------------------------------------------|
9-----------------9-----------------4-----|
9---strum these---9-----------------4-----|
7-----------------7-----------------2-----|
I don't need you, I don't need you, no
---------------------------------|
---------------------------------|
---------------------------------| Play the chorus, then this, then the 
--7h8p7-3-7h8p7-3--1-3--7h8p7-3--|       chorus again
---------------------------------|

Back to the verse, then the second chorus, wich is the same until he says "I don't need 
I dont need you, no."  Again that's the same the first time you play, right until the 
slidy part, but then you play it a couple more times.  I'm not at all sure about that
totally sweet solo-type thing.  It's really cool but very hard, and I'm pretty new to
guitar don't hate me.  Then the song goes into last verse, wich is identical to the usual
verse, except it's slowed down.  I believe you only strum the first chord 6 times instead
of the usual a lot.  You play that twice and then you play:

--------|
--------|
--------|
5--4--2-|
5--4--2-|
3--2--0-|
Comments