Deadsy - This Goodnight Chords & Tabs

 

This Goodnight Chords & Tabs

Deadsy Chords & Tabs

Version: 1 Type: Tab 0 ratings
1 star 2 stars 3 stars 4 stars 5 stars
comments

This Goodnight Tab

   
Author/Artist: Deadsy
Title: This Good Night
Album: Deadsy
Transcribed by: Lucas Aske
Email: p_exeter@yahoo.com

Tuning: A# F A# D# G# C#
[ Tab from: http://www.guitartabs.cc/tabs/d/deadsy/this_goodnight_tab.html ]
Intro:
------------------------------------------------------------------------------
------------------------------------------------------------------------------
------------------------------------------------------------------------------
-4-----4--------1-----2----4-----4---------1-----2----------------------------
-2-----4--------1-----2----2-----4---------1-----2----------------------------
-------4--------1-----2----------4---------1-----2----------------------------
                                                                              
1:02
------------------------------------------------------------------------------
------------------------------------------------------------------------------
------------------------------------------------------------------------------
-2------4--------3-4-----4-------1-----2---4-------4--------1------2----------
-2------4--------1-2-----4-------1-----2---2-------4--------1------2----------
-2------4----------------4-------1-----2-----------4--------1------2----------
                                                                              
3:28 Do a little faster than normal
------------------------------------------------------------------------------
------------------------------------------------------------------------------
------------------------------------------------------------------------------
-4---4----1---2----4---4------1----2------------------------------------------
-2---4----1---2----2---4------1----2------------------------------------------
-----4----1---2--------4------1----2------------------------------------------
Comments