Deadly Noisemaker - Lead You To Death Chords & Tabs

 

Lead You To Death Chords & Tabs

Deadly Noisemaker Chords & Tabs

Version: 1 Type: Tab 0 ratings
1 star 2 stars 3 stars 4 stars 5 stars
comments

Lead You To Death Tab

   
Band: Deadly Noisemaker
Song: Lead You To Death

Tuning (low to high): D A D G H E

Intro (olli)
E----------------------------------------------------------------
H----------------------------------------------------------------
G---7-----7-----7------7--------4-----4------4-------------------
D-----7-----7------7-----7--------4-----4----4-------------------
A-5-----5-----5------5-----5--2-----2-----2--2-------------------
D----------------------------------------------------------------
                                             ^let it ring

Verse: 
Chords: D5, b7

Pre-Chorus
E----------------------------------------------------------------
H----------------------------------------------------------------
G----------------------------------------------------------------
D-6-6-6-6-6-6-6-6-6-6-6-6-6-6-6-6-5-5-5-5-5-5-5-5-5-5-5-5-5-5-5-5
A-6-6-6-6-6-6-6-6-6-6-6-6-6-6-6-6-5-5-5-5-5-5-5-5-5-5-5-5-5-5-5-5
D-6-6-6-6-6-6-6-6-6-6-6-6-6-6-6-6-5-5-5-5-5-5-5-5-5-5-5-5-5-5-5-5
[ Tab from: http://www.guitartabs.cc/tabs/d/deadly_noisemaker/lead_you_to_death_tab.html ]
E----------------------------------------------------------------
H----------------------------------------------------------------
G----------------------------------------------------------------
D-6-6-6-6-6-6-6-6-6-6-6-6-6-6-6-6-5-5-5-5-5-5-5-5-3-------0------
A-6-6-6-6-6-6-6-6-6-6-6-6-6-6-6-6-5-5-5-5-5-5-5-5-3-------0------
D-6-6-6-6-6-6-6-6-6-6-6-6-6-6-6-6-5-5-5-5-5-5-5-5-3-------0------
                                                  Distorstion

Chorus
D-3---3---3-3-3---3---3-3---0---0---0-0-0---0---0-0---
A-3---3---3-3-3---3---3-3---0---0---0-0-0---0---0-0---
D-3---3---3-3-3---3---3-3---0---0---0-0-0---0---0-0---

D-4---4---4-4-4---4---4-4---0---0---0-0-0---0---0-0---
A-4---4---4-4-4---4---4-4---0---0---0-0-0---0---0-0---
D-4---4---4-4-4---4---4-4---0---0---0-0-0---0---0-0---


Bridge
Olli
D-0---------------------0---------------------
A-0---------------------0---------------------  2X
D-0---------------------0---------------------

Hauke
D---------------------------------------------
A-5-6-5-6-5--5-6--5-6-5-5-6-5-6-5--5-6--5-6-5-  2X
D---------------------------------------------


Outro
D-0-1-0-1-0--0-1--0-1-0-0-1-0-1-0--0-1--0-1-0-
A-0-1-0-1-0--0-1--0-1-0-0-1-0-1-0--0-1--0-1-0-  
D-0-1-0-1-0--0-1--0-1-0-0-1-0-1-0--0-1--0-1-0-
Comments