Deadlines - Vegecide Chords & Tabs

 

Vegecide Chords & Tabs

Deadlines Chords & Tabs

Version: 1 Type: Bass Tab 0 ratings
1 star 2 stars 3 stars 4 stars 5 stars
comments

Vegecide Bass Tab

-------------------------------------------------------------------------------
				VEGECIDE - The Deadlines
-------------------------------------------------------------------------------

BY: Evan Aronson, weaslesluk@aol.com
http://www.geocities.com/weaslesluk
nov, 12 2000

Intro: 
G|--------------------------------------|
D|--------------------------------------|
A|-77------7777------------777755-------|
E|---885555----555533335555------885555-|

Verse:
G|---------------------------------------------------------------------------|
D|---------------------------------------------------------------------------|
A|-77777777--55------55------55-------55------55------55----------------5555-|
E|---------88--555588--555588--5555-88--555588--555588--5555333355558888-----|
[ Tab from: http://www.guitartabs.cc/tabs/d/deadlines/vegecide_btab.html ]
Chorus:
G|--------------------------------------------------------------------|
D|--------------------------------------------------------------------|
A|-----7777------------777755------------7777------------777755-------|
E|-5555----555533335555------885555--5555----555533335555------885555-|

Bridge: 
G|--------------------------------------------------------------------|
D|--------------------------------------------------------------------|
A|-------------55--------------55----------------55--------------55---|
E|-555555555555--88555555555555--88--555555555555--88555555555555--88-|

Outro:
G|-------------------|
D|-------------------|
A|---55------55------|
E|-88--555588--5-5-5-|

Form:
Intro
Verse
Chorus
Verse
Chorus
Bridge
Chorus
Chorus
Outro

Email me if you thought I did good for my first job tabbing
-------------------------------------------------------------------------------

Comments