Deadlines - Napalm Holiday Chords & Tabs

 

Napalm Holiday Chords & Tabs

Deadlines Chords & Tabs

Version: 1 Type: Tab 0 ratings
1 star 2 stars 3 stars 4 stars 5 stars
comments

Napalm Holiday Tab

   
Band: Deadlines
song: Napalm Holiday

Tabber: John Cukras
email: riffreaper@yahoo.com

Tuning: Normal

Riff 1:        A                             B
E-----------------------------------------|--------------------|
B-----------------------------------------|--------------------|
G-----------------------------------------|--------------------|
D-----------------------------------------|--------------------|
A-7------------------99-------------------|--0-5/7-77777-------|
E-5-0-5-0-5-6 x's 3--77-7-6-7-6-0  x's 3--|--0-3/5-55555 x's 4-|

Riff 2:
E-----------------------------------------------------------------|
B-----------------------------------------------------------------|
G-----------------------------------------------------------------|
D------------222222-----------------222222------------------------|
A-7777777777-222222-5/7-777-5/7-777-222222-5/7-777-5/7-777--------|
E-5555555555-000000-3/5-555-3/5-555-000000-3/5-555-3/5-555  x's 2-|
[ Tab from: http://www.guitartabs.cc/tabs/d/deadlines/napalm_holiday_tab.html ]
Riff 3:
E-----------------------------------------------------------------------------------------------|
B-----------------------------------------------------------------------------------------------|
G-----------------------------------------------------------------------------------------------|
D---------7777777-------------------------7777777-----------------------------------------------|
A-5555555-5555555-7777777---------5555555-5555555-1010101010-12121212121212----5/7-77777--------|
E-3333333---------5555555 x's 3---3333333---------888888888--10101010101010----3/5-55555 x's 4--|

Riff 2

Riff 3 - end on 10's.

Pause: Strike A chord x's 7

Riff 4:                 A                                            
E-------------------------------------------------------------------|
B-------------------------------------------------------------------|
G-------------------------------------------------------------------|
D-------------------------------------------------------------------|
A-7------------------99------------7------------------99------------|
E-5-0-5-0-5-6 x's 4--77-7-6-7-6-0--5-0-5-0-5-6 x's 3--77-7-6-7-6-0--|

           B                                    
E-----------------------------------------------|
B-----------------------------------------------|
G-----------------------------------------------|
D--------------------------------------------7--|
A--0-5/7-7777-0-5/7-7777-0-5-7-5-7-5-7-0-5/7-5--|
E--0-3/5-5555-0-3/5-5555-0-3-5-3-5-3-5-0-3/5----|

Riff 3 - end on 10's.

Riff 4: B - end on A chord.
Comments