Deadlines - Go Go To The Graveyard Chords & Tabs

 

Go Go To The Graveyard Chords & Tabs

Deadlines Chords & Tabs

Version: 1 Type: Tab 0 ratings
1 star 2 stars 3 stars 4 stars 5 stars
comments

Go Go To The Graveyard Tab

   
---------------------------------------------------------
 Go Go To The Graveyard - Deadlines
---------------------------------------------------------

By: follmer

e|---------------------------------------------------------------|
B|---------------------------------------------------------------|
G|---------------------------------------------------------------|
D|---------------------------------------------------------------|
A|---------------------------------------------------------------|
E|-888-777-00-3-00-2-0-------------------------------------------|
	play 4 times
e|---------------------------------|-----------------
B|---------------------------------|-----------------
G|---------------------------------|-----------------
D|-10-10--9--9--2--2--5--2---------|--10-10--9-9--2--
A|-10-10--9--9--2--2--5--2---------|--10-10--9-9--2--
E|--8--8--7--7--0--0--3--0---------|---8--8--7-7--0--
       play 3 times                |  then this once |  

e|--------------------------|
B|--------------------------|
G|--------------------------|
D|-10-10--9--9--2--2--5--2--|
A|-10--10-9--9--2--2--5--2--|
E|--8---8-7--7--0--0--3--0--|
   then this 3 times again

e|--------------------------------------------|
B|--------------------------------------------|
G|--------------------------------------------|
D|--5--5---7--7--13--13--11--13---9--7--------|
A|--5--5---7--7--13--13--11--13---9--7--------|
E|--3--3---5--5--11--11---9--11---7--5--------|
	play 4 times
e|-----------------------------------------------------------
B|-----------------------------------------------------------
G|-----------------------------------------------------------
D|-11-11-11-11-11-11-11-11--9-9-9-9-9-9-9-9--7-7-7-7-7-7-7-7-
A|-11-11-11-11-11-11-11-11--9-9-9-9-9-9-9-9--7-7-7-7-7-7-7-7-
E|--9--9--9--9--9--9--9--9--7-7-7-7-7-7-7-7--5-5-5-5-5-5-5-5-
[ Tab from: http://www.guitartabs.cc/tabs/d/deadlines/go_go_to_the_graveyard_tab.html ]
e|-----------------|
B|-----------------|
G|-----------------|
D|-5-5-5-5-5-5-5-5-|
A|-5-5-5-5-5-5-5-5-|
E|-3-3-3-3-3-3-3-3-|
	play once
e|---------------------------------|-----------------
B|---------------------------------|-----------------
G|---------------------------------|-----------------
D|-10-10--9--9--2--2--5--2---------|--10-10--9-9--2--
A|-10-10--9--9--2--2--5--2---------|--10-10--9-9--2--
E|--8--8--7--7--0--0--3--0---------|---8--8--7-7--0--
       play 3 times                |  then this once | 
 
--------------------------|
--------------------------|
--------------------------|
-10-10--9--9--2--2--5--2--|
-10--10-9--9--2--2--5--2--|
--8---8-7--7--0--0--3--0--|
   then this 3 times again

e|---------------------------------------------|
B|---------------------------------------------|
G|---------------------------------------------|
D|--5--5---7--7--13--13--11--13---9--7---------|
A|--5--5---7--7--13--13--11--13---9--7---------|
E|--3--3---5--5--11--11---9--11---7--5---------|
	play 4 times
e|-----------------------------------------------------------
B|-----------------------------------------------------------
G|-----------------------------------------------------------
D|-11-11-11-11-11-11-11-11--9-9-9-9-9-9-9-9--7-7-7-7-7-7-7-7-
A|-11-11-11-11-11-11-11-11--9-9-9-9-9-9-9-9--7-7-7-7-7-7-7-7-
E|-9--9--9--9--9--9--9--9---7-7-7-7-7-7-7-7--5-5-5-5-5-5-5-5-

e|-----------------|
B|-----------------|
G|-----------------|
D|-5-5-5-5-5-5-5-5-|
A|-5-5-5-5-5-5-5-5-|
E|-3-3-3-3-3-3-3-3-|
	play once

e|-------------------------------|
B|-------------------------------|
G|-------------------------------|
D|-10-10--9--9--2--2--5--2-------|
A|-10-10--9--9--2--2--5--2-------|
E|--8--8--7--7--0--0--3--0-------|
	play 4 times
e|-----------------------------------------------------------
B|-----------------------------------------------------------
G|-----------------------------------------------------------
D|-11-11-11-11-11-11-11-11--9-9-9-9-9-9-9-9--7-7-7-7-7-7-7-7-
A|-11-11-11-11-11-11-11-11--9-9-9-9-9-9-9-9--7-7-7-7-7-7-7-7-
E|-9--9--9--9--9--9--9--9---7-7-7-7-7-7-7-7--5-5-5-5-5-5-5-5-

e|-----------------|
B|-----------------|
G|-----------------|
D|-5-5-5-5-5-5-5-5-|
A|-5-5-5-5-5-5-5-5-|
E|-3-3-3-3-3-3-3-3-|
	play once

There it's not too hard. I probly have things wrong so fix them plz.
just play it how I have it and that's the whole song.
========================================================
Comments