Deadlines - Darlin Darlin Chords & Tabs

 

Darlin Darlin Chords & Tabs

Deadlines Chords & Tabs

Version: 1 Type: Tab 0 ratings
1 star 2 stars 3 stars 4 stars 5 stars
comments

Darlin Darlin Tab

Band: The Deadlines
song: Darlin' Darlin'

Tabber: John Cukras
email: riffreaper@yahoo.com

tuning: normal

riff 1:
E--------------------------------------------------------------------------------------------------|
B--------------------------------------------------------------------------------------------------|
G--------------------------------------------------------------------------------------------------|
D-----------------------66666666-5-3333333-555555-------------------------------6666666-5-8888888--|
A-66666666-5-33333333-5-44444444-3-1111111-333333----------66666666-5-3333333-5-4444444-3-6666666--|
E-44444444-3-11111111-3--------------------------- x's 3---44444444-3-1111111-3--------------------|
[ Tab from: http://www.guitartabs.cc/tabs/d/deadlines/darlin_darlin_tab.html ]
riff 2:
E-----------------------------------------------|
B-----------------------------------------------|
G-----------------------------------------------|
D-6666666-3333333-------------6666666-5-8888888-|
A-4444444-1111111-8-10--------4444444-3-6666666-|
E-----------------6-8--x's 3--------------------|

Riff 1

Riff 2

Solo:
E-----------------------------------------------------------------|
B-----------------------------------------------------------------|
G-----------------------------------------------------------------|
D-----------------------------------------------------------------|
A---------------4--4-3-1--1-3-3-3------------------4--4-3/6666666-|
E-4--4-3-1--1-3----------------------4--4-3-1--1-3----------------|

Riff 2
Comments