Deadline - Last Night Chords & Tabs

 

Last Night Chords & Tabs

Deadline Chords & Tabs

Version: 1 Type: Bass Tab

Last Night Bass Tab

Artist: Deadline

Song: Last Night

Tuning: Standard


Intro (Bass starts 00:19)

G|------------------------------------------------------------|
D|------------------------------------------------------------|
A|-0-0-0-0-0---1-1-1-1-1-1-1-1---------------3-3-3-3-3-3-3-3--|
E|-------------------------------3-3-3-3-3--------------------|

G|----------------------------------------------------------------------------------------|
D|----------------------------------------------------------------------------------------|
A|-0-0-0-0-0-0-0-0---1-1-1-1-1-1-1-1---------------------3-3-3-3-3-3-3-3-3-3-3-3-3-3-3-3--|
E|-------------------------------------3-3-3-3-3-3-3-3------------------------------------|


Verse

G|------------------------------------------------------------|
D|-3-3-3-3-3--------------------------------------------------|
A|-------------1-1-1-1-1-1---5-5-5-5-5---3-3-3-3-3-3----------|  X 3
E|------------------------------------------------------------|


G|------------------------------------------------------------|
D|-3-3-3-3-3--------------------------------------------------|
A|-------------1-1-1-1-1-1---3-3-3-3-3-3-3-3-3-3-3-3-3-3-3-3--|  
E|------------------------------------------------------------|


Chorus

G|--------------------------------------------|
D|-3-3-3-3-3-3-3------------------------------|
A|-----------------3-3-3-3-3-3---1-1-1-1-1-1--|  X 4
E|--------------------------------------------|


INTRO X 1


Bridge
[ Tab from: http://www.guitartabs.cc/tabs/d/deadline/last_night_btab.html ]
G|----------------------------------------------------------------|
D|-------3-3-------------2-2-------------0-0-------------2-2------|
A|-5-5-5-----5-5---3-3-3-----3-3---1-1-1-----1-1---3-3-3-----3-3--|  
E|----------------------------------------------------------------|


G|----------------------------------------------------------------------------------|
D|-------3-3-------------2-2-------------0-0----------------------------------------|
A|-5-5-5-----5-5---3-3-3-----3-3---1-1-1-----1-1---3-3-3-3-3-3-3-3-3-3-3-3-3-3-3-3--|  
E|----------------------------------------------------------------------------------|


Guitar Solo

G|------------------------------------------------------------------------|
D|------------------------------------------------------------------------|
A|-5-5-5-5-5-5-5-5---3-3-3-3-3-3-3-3---1-1-1-1-1-1-1-1---3-3-3-3-3-3-3-3--|X3  
E|------------------------------------------------------------------------|


G|----------------------------------------------------------------------------------------|
D|----------------------------------------------------------------------------------------|
A|-5-5-5-5-5-5-5-5---3-3-3-3-3-3-3-3---1-1-1-1-1-1-1-1---3-3-3-3-3-3-3-3-3-3-3-3-3-3-3-3--|X1
E|----------------------------------------------------------------------------------------|


Verse


Chorus


Intro


End on F
G|--------|
D|---3----|
A|--------|
E|--------|



Order: 

Into
Verse
Chorus
Intro
Bridge
Guitar Solo
Verse
Chorus
Intro
End on F


By: buzsi
E mail:buzsi@c2.hu