Dead Regret - We Were Put Here Chords & Tabs

 

We Were Put Here Chords & Tabs

Dead Regret Chords & Tabs

Version: 1 Type: Tab 0 ratings
1 star 2 stars 3 stars 4 stars 5 stars
comments

We Were Put Here Tab

Thanx for taking the time this is my bands first official song comment please!!!



|----------------------------|----------------------------
|----------------------------|----------------------------
|----0-2-3-2-0-3-2-----------|----0-2-3-2-0-3-2-----------
|-0-3-------------3-2-0-2-3-2|-0-3-------------3-2-0-2-3-0x2
|0---------------------------|0---------------------------
|----------------------------|----------------------------

|-------------------------------|----------------------------------------|
|-------------------------------|----------------------------------------|
|-------------------------------|----------------------------------------|
|5-5-3-3--0-3-5---5-5-3-3--0-3-5|-0-3-2---0-3-2-3----0-3-2----0-3-2-3-2-0|
|3-3-1-1--0-1-3---3-3-1-1--0-1-3|0-------0----------0--------0-----------|
|-------------------------------|----------------------------------------|
[ Tab from: http://www.guitartabs.cc/tabs/d/dead_regret/we_were_put_here_tab.html ]
|--------------------------------------------------------|
|--------------------------------------------------------|
|---------------3-2-0------------------3-2-5-3-7-5-3-----|
|-0-3-2----0-3-2---------0-3-2----0-3-2-------------5-3-0|
|0--------0-------------0--------0-----------------------|
|--------------------------------------------------------|


|-------------------------------|---------------------------|
|-------------------------------|---------------------------|
|-------------------------------|---0-2-3-2-0-3-2-----------|
|5-5-3-3--0-3-5---5-5-3-3--0-3-5|-0-3------------3-2-0-2-3-2|
|3-3-1-1--0-1-3---3-3-1-1--0-1-3|0--------------------------|
|-------------------------------|---------------------------|
                       S-L-O-W
|-------------------------------|
|-------------------------------|
|------0-2-3-2-0-3-2------------|
|-0-3-2-------------3-2-0-2-3-0-|letring
|0------------------------------|
|-------------------------------|
Comments