Dead Poetic - Vanus Empty Chords & Tabs

 

Vanus Empty Chords & Tabs

Dead Poetic Chords & Tabs

Version: 1 Type: Tab 0 ratings
1 star 2 stars 3 stars 4 stars 5 stars
comments

Vanus Empty Tab

----------------------------------------------------------------------------
			     VANUS EMPTY - Dead Poetic
----------------------------------------------------------------------------
Tabbed by: Jennifer
Email: sonic_speed_@hotmail.com

Tuning: Dropped D

I love this song... and I love Dead Poetic.... They're an awesome band!
Buy their CD!!

Intro: x 2
E--------------------------------------------------------|
B-10-10--9-9--10-10--9-9-9-9--10-10--9-9--10-10--9-9-9-9-|
G-9--9---9-9--9--9---9-9-9-9--9--9---9-9--9--9---9-9-9-9-|
D-7--7---7-7--7--7---7-7-7-7--7--7---7-7--7--7---7-7-7-7-|
A-7--7---7-7--7--7---7-7-7-7--7--7---7-7--7--7---7-7-7-7-|
D-7--7---7-7--7--7---7-7-7-7--7--7---7-7--7--7---7-7-7-7-|

E-----------------------|
B-----------------------|
G-6-6--6-6---6-6--6-6---|
D-4-4--4-4---4-4--4-4---|
A-4-4--4-4---4-4--4-4---|
D-4-4--4-4---4-4--4-4---|

Verse 1: x 2
E--------------------------------------------------------|
B-10-10--9-9--10-10--9-9-9-9--10-10--9-9--10-10--9-9-9-9-|
G-9--9---9-9--9--9---9-9-9-9--9--9---9-9--9--9---9-9-9-9-|
D-7--7---7-7--7--7---7-7-7-7--7--7---7-7--7--7---7-7-7-7-|
A-7--7---7-7--7--7---7-7-7-7--7--7---7-7--7--7---7-7-7-7-|
D-7--7---7-7--7--7---7-7-7-7--7--7---7-7--7--7---7-7-7-7-|

E-----------------------|
B-----------------------|
G-6-6--6-6---6-6--6-6---|
D-4-4--4-4---4-4--4-4---|
A-4-4--4-4---4-4--4-4---|
D-4-4--4-4---4-4--4-4---|

E--------------------------------------------------------|
B-10-10--9-9--10-10--9-9-9-9--10-10--9-9--10-10--9-9-9-9-|
G-9--9---9-9--9--9---9-9-9-9--9--9---9-9--9--9---9-9-9-9-|
D-7--7---7-7--7--7---7-7-7-7--7--7---7-7--7--7---7-7-7-7-|
A-7--7---7-7--7--7---7-7-7-7--7--7---7-7--7--7---7-7-7-7-|
D-7--7---7-7--7--7---7-7-7-7--7--7---7-7--7--7---7-7-7-7-|

E-----------------------|
B-----------------------|
G-6-6--6-6---6-6--6-6---|
D-4-4--4-4---4-4--4-4---|
A-4-4--4-4---4-4--4-4---|
D-4-4--4-4---4-4--4-4---|


Pre-Chorus:
E----------------------------------------------------------------------| 
B----------------------------------------------------------------------| 
G-7-7--x--7-7--7-7-6-6--x--6-6--6-6-6-6--6--6-6--6-6-4-4--4--4-4--4-4--| 
D-x-x--x--x-x--x-x-x-x--x--x-x--x-x-4-4--4--4-4--4-4-2-2--2--2-2--2-2--| 
A-5-5--5--5-5--5-5-5-5--5--5-5--5-5-4-4--4--4-4--4-4-2-2--2--2-2--2-2--| 
D-0-0--0--0-0--0-0-0-0--0--0-0--0-0-4-4--4--4-4--4-4-2-2--2--2-2--2-2--| 

Chorus:
E---------------------------------------------------------|
B-10-10-10-9---10-10-10-9---------------------------------|
G-x--x--x--x---x--x--x--x--6--6-6-6-6--4--4-4-4-----------|
D-7--7--7--7---7--7--7--7--4--4-4-4-4--2--2-2-2-7---------|
A-0--0--0--0---0--0--0--0--4--4-4-4-4--2--2-2-2-7---------|
D-0--0--0--0---0--0--0--0--4--4-4-4-4--2--2-2-2-7---------|

E---------------------------------------------------------|
B-10-10-10-9---10-10-10-9---------------------------------|
G-x--x--x--x---x--x--x--x--6--6-6-6-6--4--4-4-4-----------|
D-7--7--7--7---7--7--7--7--4--4-4-4-4--2--2-2-2-7---------|
A-0--0--0--0---0--0--0--0--4--4-4-4-4--2--2-2-2-7---------|
D-0--0--0--0---0--0--0--0--4--4-4-4-4--2--2-2-2-7---------|

Pre-Verse:
E----------------------------------|
B-10x-10x--9x-9x--10x-10x--9-x-x-9-|
G-9-x-9-x--9x-9x--9-x-9-x--9-x-x-9-|
D-7-x-7-x--7x-7x--7-x-7-x--7-x-x-7-|
A-7-x-7-x--7x-7x--7-x-7-x--7-x-x-7-|
D-7-x-7-x--7x-7x--7-x-7-x--7-x-x-7-|

Verse 2: x 2
E--------------------------------------------------------|
B-10-10--9-9--10-10--9-9-9-9--10-10--9-9--10-10--9-9-9-9-|
G-9--9---9-9--9--9---9-9-9-9--9--9---9-9--9--9---9-9-9-9-|
D-7--7---7-7--7--7---7-7-7-7--7--7---7-7--7--7---7-7-7-7-|
A-7--7---7-7--7--7---7-7-7-7--7--7---7-7--7--7---7-7-7-7-|
D-7--7---7-7--7--7---7-7-7-7--7--7---7-7--7--7---7-7-7-7-|

E-----------------------|
B-----------------------|
G-6-6--6-6---6-6--6-6---|
D-4-4--4-4---4-4--4-4---|
A-4-4--4-4---4-4--4-4---|
D-4-4--4-4---4-4--4-4---|

Pre-Chorus: 
E----------------------------------------------------------------------| 
B----------------------------------------------------------------------| 
G-7-7--x--7-7--7-7-6-6--x--6-6--6-6-6-6--6--6-6--6-6-4-4--4--4-4--4-4--| 
D-x-x--x--x-x--x-x-x-x--x--x-x--x-x-4-4--4--4-4--4-4-2-2--2--2-2--2-2--| 
A-5-5--5--5-5--5-5-5-5--5--5-5--5-5-4-4--4--4-4--4-4-2-2--2--2-2--2-2--| 
D-0-0--0--0-0--0-0-0-0--0--0-0--0-0-4-4--4--4-4--4-4-2-2--2--2-2--2-2--| 
[ Tab from: http://www.guitartabs.cc/tabs/d/dead_poetic/vanus_empty_tab.html ]
E----------------------------------------------------------------------| 
B----------------------------------------------------------------------| 
G-7-7--x--7-7--7-7-6-6--x--6-6--6-6-6-6--6--6-6--6-6-4-4--4--4-4--4-4--| 
D-x-x--x--x-x--x-x-x-x--x--x-x--x-x-4-4--4--4-4--4-4-2-2--2--2-2--2-2--| 
A-5-5--5--5-5--5-5-5-5--5--5-5--5-5-4-4--4--4-4--4-4-2-2--2--2-2--2-2--| 
D-0-0--0--0-0--0-0-0-0--0--0-0--0-0-4-4--4--4-4--4-4-2-2--2--2-2--2-2--| 

Chorus: x 2
E---------------------------------------------------------|
B-10-10-10-9---10-10-10-9---------------------------------|
G-x--x--x--x---x--x--x--x--6--6-6-6-6--4--4-4-4-----------|
D-7--7--7--7---7--7--7--7--4--4-4-4-4--2--2-2-2-7---------|
A-0--0--0--0---0--0--0--0--4--4-4-4-4--2--2-2-2-7---------|
D-0--0--0--0---0--0--0--0--4--4-4-4-4--2--2-2-2-7---------|

E---------------------------------------------------------|
B-10-10-10-9---10-10-10-9---------------------------------|
G-x--x--x--x---x--x--x--x--6--6-6-6-6--4--4-4-4-----------|
D-7--7--7--7---7--7--7--7--4--4-4-4-4--2--2-2-2-7---------|
A-0--0--0--0---0--0--0--0--4--4-4-4-4--2--2-2-2-7---------|
D-0--0--0--0---0--0--0--0--4--4-4-4-4--2--2-2-2-7---------|

Bridge:
E---------------------------------------------|
B---------------------------------------------|
G--------9b-9---------9b-9----6-6-6-6-4-4-4-4-|
D-0-xxx--x--x--0-xxx--x--x----4-4-4-4-2-2-2-2-|
A-0-xxx--7b-7--0-xxx--7b-7----4-4-4-4-2-2-2-2-|
D-0-xxx--------0-xxx----------4-4-4-4-2-2-2-2-|

E---------------------------------------------|
B---------------------------------------------|
G--------9b-9---------9b-9----6-6-6-6-4-4-4-4-|
D-0-xxx--x--x--0-xxx--x--x----4-4-4-4-2-2-2-2-|
A-0-xxx--7b-7--0-xxx--7b-7----4-4-4-4-2-2-2-2-|
D-0-xxx--------0-xxx----------4-4-4-4-2-2-2-2-|

E---------------------------------------------|
B---------------------------------------------|
G--------9b-9---------9b-9----6-6-6-6-4-4-4-4-|
D-0-xxx--x--x--0-xxx--x--x----4-4-4-4-2-2-2-2-|
A-0-xxx--7b-7--0-xxx--7b-7----4-4-4-4-2-2-2-2-|
D-0-xxx--------0-xxx----------4-4-4-4-2-2-2-2-|

E---------------------------------------------|
B---------------------------------------------|
G--------9b-9---------9b-9----6-6-6-6-4-4-4-4-|
D-0-xxx--x--x--0-xxx--x--x----4-4-4-4-2-2-2-2-|
A-0-xxx--7b-7--0-xxx--7b-7----4-4-4-4-2-2-2-2-|
D-0-xxx--------0-xxx----------4-4-4-4-2-2-2-2-|

E------------------|
B------------------|
G------------------| 
D-4-7-6-0--4-7-6-0-| 
A-4-7-6-0--4-7-6-0-|
D-4-7-6-0--4-7-6-0-|

Chorus:
[Clean]
E--------------------------------------------|
B-10--10-10-10--10-10---10--10-10-10--10-10--|
G-9---9--9--9---9--9----9---9--9--9---9--9---|
D-7---7--7--7---7--7----0---0--0--0---0--0---|
A-7---7--7--7---7--7----0---0--0--0---0--0---|
D-7---7--7--7---7--7----0---0--0--0---0--0---|

[Distortion]
E---------------------------------|
B---------------------------------|
G--6--6-6-6-6--4--4-4-4-----------|
D--4--4-4-4-4--2--2-2-2-7---------|
A--4--4-4-4-4--2--2-2-2-7---------|
D--4--4-4-4-4--2--2-2-2-7---------|

E---------------------------------------------------------|
B-10-10-10-9---10-10-10-9---------------------------------|
G-x--x--x--x---x--x--x--x--6--6-6-6-6--4--4-4-4-----------|
D-7--7--7--7---7--7--7--7--4--4-4-4-4--2--2-2-2-7---------|
A-0--0--0--0---0--0--0--0--4--4-4-4-4--2--2-2-2-7---------|
D-0--0--0--0---0--0--0--0--4--4-4-4-4--2--2-2-2-7---------|

E---------------------------------------------------------|
B-10-10-10-9---10-10-10-9---------------------------------|
G-x--x--x--x---x--x--x--x--6--6-6-6-6--4--4-4-4-----------|
D-7--7--7--7---7--7--7--7--4--4-4-4-4--2--2-2-2-7---------|
A-0--0--0--0---0--0--0--0--4--4-4-4-4--2--2-2-2-7---------|
D-0--0--0--0---0--0--0--0--4--4-4-4-4--2--2-2-2-7---------|

E---------------------------------------------------------|
B-10-10-10-9---10-10-10-9---------------------------------|
G-x--x--x--x---x--x--x--x--6--6-6-6-6--4--4-4-4-----------|
D-7--7--7--7---7--7--7--7--4--4-4-4-4--2--2-2-2-7---------|
A-0--0--0--0---0--0--0--0--4--4-4-4-4--2--2-2-2-7---------|
D-0--0--0--0---0--0--0--0--4--4-4-4-4--2--2-2-2-7---------|

End:
E------------------|
B------------------|
G------------------| 
D-4-7-6-0--4-7-6-0-| 
A-4-7-6-0--4-7-6-0-|
D-4-7-6-0--4-7-6-0-|

| ~  vibrato
| x  Mute note
===========================================================================
Comments