Dead Poetic - Stereo Child Chords & Tabs

 

Stereo Child Chords & Tabs

Dead Poetic Chords & Tabs

Version: 1 Type: Tab 0 ratings
1 star 2 stars 3 stars 4 stars 5 stars
comments

Stereo Child Tab

This is how the song is actually played... It's all I can remember right now, but
it IS correct. It's just the intro, but the song is played around this structure...

Intro:
e|---------------|
b|-2--2-2-5--5-2-|
g|-2--2-2-2--2-2-|
d|---------------|
a|---------------|
D|---------------|
[ Tab from: http://www.guitartabs.cc/tabs/d/dead_poetic/stereo_child_tab.html ]
e|--------------------------------------|
b|--------------------------------------|
g|--------------------------------------|
d|-2h4-4-4-4-2-2--2h4-4-4-4-2-4--0-0-0r-|
a|-2h4-4-4-4-2-2--2h4-4-4-4-2-4--0-0-0r-|
D|-2h4-4-4-4-2-2--2h4-4-4-4-2-4--0-0-0r-|

e|--------------------------|
b|-2--2-2-5--5-2--2-2-5-5-2-|
g|-2--2-2-2--2-2--2-2-2-2-2-|
d|--------------------------|
a|--------------------------|
D|--------------------------|
Comments