Dead Poetic - New Medicines Chords & Tabs

 

New Medicines Chords & Tabs

Dead Poetic Chords & Tabs

Version: 2 Type: Tab 0 ratings
1 star 2 stars 3 stars 4 stars 5 stars
comments

New Medicines Tab

I got help with my guitar teacher on this one, he has a degree in music and is fast
and accurate at transcribing songs by ear.


this is the first two parts to new medicines

tuning in drop D, DADGBE


intro, play fast, but not too much:

E|------------------0------------------|------------------0---------------|
B|-----------2------------0----2-------|----------2------------0----2-----|
G|-------2-------2-------------------2-|------2-------2-----------------2-|X2
D|--4----------------------------------|--0-------------------------------|
A|-------------------------------------|----------------------------------|
D|-------------------------------------|----------------------------------|

[ Tab from: http://www.guitartabs.cc/tabs/d/dead_poetic/new_medicines_tab_ver_2.html ]

this is part of the chorus, also right after intro:
          (mute for a second, not palm mute)
                 \/ 
E|--------------------------------|---------------------------------------|
B|--------------------------------|---------------------------------------|
G|----------------------------9---|-------------4-------------4-----------|
D|----4--4--4--4-----4--4--4--x---|----0--0--0--x----0--0--0--x-----------|
A|----4--4--4--4-----4--4--4--7---|----0--0--0--2----0--0--0--2-----------|
D|----4--4--4--4-----4--4--4------|----0--0--0-------0--0--0--------------|



this is all i currently have, when i have more to this song, i will post the whole song.

questons?   flipincident@hotmail.com
Comments