Dead Poetic - Modern Morbid Prophecies Chords & Tabs

 

Modern Morbid Prophecies Chords & Tabs

Dead Poetic Chords & Tabs

Version: 1 Type: Tab 0 ratings
1 star 2 stars 3 stars 4 stars 5 stars
comments

Modern Morbid Prophecies Tab

-----------------------------------------------------------------------------
			     MODERN MORBID PROPHECIES - Dead Poetic
-----------------------------------------------------------------------------
Tabbed by: Jennifer
Email: sonic_speed_@hotmail.com

Tuning: Dropped D (It really doesn't have to be, but all their other songs are so I
thought I'd make it easier.)

Intro: x 4
Guitar 1

e-9h12-9-12-9--------9h12-9-12-14------|
B-------------12-------------------12--|
G--------------------------------------|
D--------------------------------------|
A--------------------------------------|
D--------------------------------------|

Guitar 2

e--------------------------------------|
B--------------------------------------|
G-6-6-6-6-6-6-6-6-9-9-9-9--------------|
D-6-6-6-6-6-6-6-6-9-9-9-9-4-4-4-4------|
A-4-4-4-4-4-4-4-4-7-7-7-7-4-4-4-4------|
D-------------------------4-4-4-4------|

Verse 1: (Not so sure about this, just improvise it) x6
e-12--9-----12---12--9-----12---14--9-----14--14--9-----14----|
B--------12-------------12-------------12------------12-------|
G-------------------------------------------------------------|
D-------------------------------------------------------------|
A-------------------------------------------------------------|
D-------------------------------------------------------------|

Chorus: x4
Guitar 1

e-9h12-9-12-9--------9h12-9-12-14------|
B-------------12-------------------12--|
G--------------------------------------|
D--------------------------------------|
A--------------------------------------|
D--------------------------------------|

Guitar 2
					(Fouth time)
e----------------------------------|----------------------------------|
B----------------------------------|----------------------------------|
G-6-6-6-6-6-6-6-6-9-9-9-9----------|----------------------------------|
D-6-6-6-6-6-6-6-6-9-9-9-9-4-4-4-4--|-9-9-9-9-9-9-9-9-4-4-4-4-4-4-4-4--|
A-4-4-4-4-4-4-4-4-7-7-7-7-4-4-4-4--|-9-9-9-9-9-9-9-9-4-4-4-4-4-4-4-4--|
D-------------------------4-4-4-4--|-9-9-9-9-9-9-9-9-4-4-4-4-4-4-4-4--|

Fill:
e-12~----9~-----------------12~---9~---------------|
B--------------12~----9~----------------12~---9~---|
G--------------------------------------------------|
D--------------------------------------------------|
A--------------------------------------------------|
D--------------------------------------------------|

Verse 2: (Again... improvise) x6
e-12--9-----12---12--9-----12---14--9-----14--14--9-----14----|
B--------12-------------12-------------12------------12-------|
G-------------------------------------------------------------|
D-------------------------------------------------------------|
A-------------------------------------------------------------|
D-------------------------------------------------------------|

Pre-Chorus:
e------------------|
B------------------|
G-4-x-x-x-x-x-4-4--|
D-4-x-x-x-x-x-4-4--|
A-2-x-x-x-x-x-2-2--|
D------------------|

Chorus: x4
Guitar 1

e-9h12-9-12-9--------9h12-9-12-14------|
B-------------12-------------------12--|
G--------------------------------------|
D--------------------------------------|
A--------------------------------------|
D--------------------------------------|
[ Tab from: http://www.guitartabs.cc/tabs/d/dead_poetic/modern_morbid_prophecies_tab.html ]
Guitar 2
					(Fouth time)
e----------------------------------|----------------------------------|
B----------------------------------|----------------------------------|
G-6-6-6-6-6-6-6-6-9-9-9-9----------|----------------------------------|
D-6-6-6-6-6-6-6-6-9-9-9-9-4-4-4-4--|-9-9-9-9-9-9-9-9-4-4-4-4-4-4-4-4--|
A-4-4-4-4-4-4-4-4-7-7-7-7-4-4-4-4--|-9-9-9-9-9-9-9-9-4-4-4-4-4-4-4-4--|
D-------------------------4-4-4-4--|-9-9-9-9-9-9-9-9-4-4-4-4-4-4-4-4--|

Bridge: x 2
e------------------------------------------------------------------|
B------------------------------------------------------------------|
G-6-6-6-6-6-6-6-6-6-6-6-6-6-6-6-6----------------------------------|
D-6-6-6-6-6-6-6-6-6-6-6-6-6-6-6-6-9-9-9-9-9-9-9-9-9-9-9-9-9-9-9-9--|
A-4-4-4-4-4-4-4-4-4-4-4-4-4-4-4-4-9-9-9-9-9-9-9-9-9-9-9-9-9-9-9-9--|
D---------------------------------9-9-9-9-9-9-9-9-9-9-9-9-9-9-9-9--|

e------------------------------------------------------------------|
B------------------------------------------------------------------|
G------------------------------------------------------------------|
D-4-4-4-4-4-4-4-4-4-4-4-4-4-4-4-4-7-7-7-7-7-7-7-7-7-7-7-7-7-7-7-7--|
A-4-4-4-4-4-4-4-4-4-4-4-4-4-4-4-4-7-7-7-7-7-7-7-7-7-7-7-7-7-7-7-7--|
D-4-4-4-4-4-4-4-4-4-4-4-4-4-4-4-4-7-7-7-7-7-7-7-7-7-7-7-7-7-7-7-7--|

Fill:
e-12~----9~-----------------12~---9~---------------|
B--------------12~----9~----------------12~---9~---|
G--------------------------------------------------|
D--------------------------------------------------|
A--------------------------------------------------|
D--------------------------------------------------|

Chorus: x4
Guitar 1

e-9h12-9-12-9--------9h12-9-12-14------|
B-------------12-------------------12--|
G--------------------------------------|
D--------------------------------------|
A--------------------------------------|
D--------------------------------------|

Guitar 2
					(Fouth time)
e----------------------------------|----------------------------------|
B----------------------------------|----------------------------------|
G-6-6-6-6-6-6-6-6-9-9-9-9----------|----------------------------------|
D-6-6-6-6-6-6-6-6-9-9-9-9-4-4-4-4--|-9-9-9-9-9-9-9-9-4-4-4-4-4-4-4-4--|
A-4-4-4-4-4-4-4-4-7-7-7-7-4-4-4-4--|-9-9-9-9-9-9-9-9-4-4-4-4-4-4-4-4--|
D-------------------------4-4-4-4--|-9-9-9-9-9-9-9-9-4-4-4-4-4-4-4-4--|

Ending:
(Again... improvise) x4
e-12--9-----12---12--9-----12---14--9-----14--14--9-----14----|
B--------12-------------12-------------12------------12-------|
G-------------------------------------------------------------|
D-------------------------------------------------------------|
A-------------------------------------------------------------|
D-------------------------------------------------------------|

e------------------------------------------------------------------|
B------------------------------------------------------------------|
G-6-6-6-6-6-6-6-6-6-6-6-6-6-6-6-6----------------------------------|
D-6-6-6-6-6-6-6-6-6-6-6-6-6-6-6-6-9-9-9-9-9-9-9-9-9-9-9-9-9-9-9-9--|
A-4-4-4-4-4-4-4-4-4-4-4-4-4-4-4-4-9-9-9-9-9-9-9-9-9-9-9-9-9-9-9-9--|
D---------------------------------9-9-9-9-9-9-9-9-9-9-9-9-9-9-9-9--|

End on:
e------|
B------|
G--6~--|
D--6~--|
A--4~--|
D------|


| x  mute note
| v  vibrato
=============================================================================
Comments