Dead Poetic - Hostages Chords & Tabs

 

Hostages Chords & Tabs

Dead Poetic Chords & Tabs

Version: 1 Type: Tab 0 ratings
1 star 2 stars 3 stars 4 stars 5 stars
comments

Hostages Tab

-----------------------------------------------------------------------------
			     HOSTAGES - Dead Poetic
-----------------------------------------------------------------------------
Tabbed by: Jennifer
Email: sonic_speed_@hotmail.com

Tuning: Dropped D 

Intro:
e---------------------------------------------------------------|
B---------------------------------------------------------------|
G-3xxxx-4-3-3--8xxxx-11-10-10--8xxxx-11-10-8--10-8--6--8--6--4--|
D-xxxxx-x-x-x--xxxxx-x--x--x---xxxxx-x--x--x--x--x--x--x--x--x--|
A-1xxxx-2-1-1--6xxxx-9--8--8---6xxxx-9--8--6--8--6--4--6--4--2--|
D---------------------------------------------------------------|

e-------------------------------------------------------------|
B-------------------------------------------------------------|
G-3xxxx-4-3-3--8xxxx-11-10-10--8xxxx-11-10-8--10-8--6--11-11--|
D-xxxxx-x-x-x--xxxxx-x--x--x---xxxxx-x--x--x--x--x--x--x--x---|
A-1xxxx-2-1-1--6xxxx-9--8--8---6xxxx-9--8--6--8--6--4--9--9---|
D-------------------------------------------------------------|

Drum solo

Verse: x2
e-----------------------------------------------|
B-----------------------------------------------|
G-8xx-8-x-8--10xx-10-x-10-----------------------|
D-8xx-8-x-8--10xx-10-x-10-4xx-4-x-4--4xx-4-x-4--|
A-6xx-6-x-6--8-xx-8--x-8--4xx-4-x-4--4xx-4-x-4--|
D-------------------------4xx-4-x-4--4xx-4-x-4--|

(I didn't figure out the part after it)

Pre-Chorus:
e-----------------------------------------|
B-----------------------------------------|
G-8-8-8-----8-8-8-----8-8-8-----8-8-8--8--|
D-8-8-8-----8-8-8-----8-8-8-----8-8-8--8--|
A-6-6-6-6b--6-6-6-6b--6-6-6-6b--6-6-6--6--|
D-------6b--------6b--------6b------------|

Chorus: x2
e-10---15---12---14---------------------------|
B---------------------11-p12-h11--------------|
G---------------------------------11--10------|
D-----------------------------------------11--|
A---------------------------------------------|
D---------------------------------------------|

e---------------------------------------------|
B---------------------------------------------|
G-8xx-8-x-8--8xx-8-x-8--3xx-3-x-3--3xx-3-x-3--|
D-8xx-8-x-8--8xx-8-x-8--3xx-3-x-3--3xx-3-x-3--|
A-6xx-6-x-6--6xx-6-x-6--1xx-1-x-1--1xx-1-x-1--|
D---------------------------------------------|
[ Tab from: http://www.guitartabs.cc/tabs/d/dead_poetic/hostages_tab.html ]
Verse: x2
e-----------------------------------------------|
B-----------------------------------------------|
G-8xx-8-x-8--10xx-10-x-10-----------------------|
D-8xx-8-x-8--10xx-10-x-10-4xx-4-x-4--4xx-4-x-4--|
A-6xx-6-x-6--8-xx-8--x-8--4xx-4-x-4--4xx-4-x-4--|
D-------------------------4xx-4-x-4--4xx-4-x-4--|

Bridge (Not figured out yet)

Chorus: x2
e-10---15---12---14---------------------------|
B---------------------11-p12-h11--------------|
G---------------------------------11--10------|
D-----------------------------------------11--|
A---------------------------------------------|
D---------------------------------------------|

e---------------------------------------------|
B---------------------------------------------|
G-8xx-8-x-8--8xx-8-x-8--3xx-3-x-3--3xx-3-x-3--|
D-8xx-8-x-8--8xx-8-x-8--3xx-3-x-3--3xx-3-x-3--|
A-6xx-6-x-6--6xx-6-x-6--1xx-1-x-1--1xx-1-x-1--|
D---------------------------------------------|

Ending:
e-10---15---12---14---------------------------|
B---------------------11-p12-h11--------------|
G---------------------------------11--10------|
D-----------------------------------------11--|
A---------------------------------------------|
D---------------------------------------------|

e------------------------------------------------------------------|
B------------------------------------------------------------------|
G-444/6-666/8-888/10-101010/11-111111\10-101010\8-888\6-666\4-643--|
D-444/6-666/8-888/10-101010/11-111111\10-101010\8-888\6-666\4-643--|
A-222/4-444/6-666/8--8-8-8-/9--9-9-9-\8--8-8-8-\6-666\4-444\2-421--|
D------------------------------------------------------------------|

e-10---15---12---14---------------------------|
B---------------------11-p12-h11--------------|
G---------------------------------11--10------|
D-----------------------------------------11--|
A---------------------------------------------|
D---------------------------------------------|

e----------------------------------------------------------------|
B----------------------------------------------------------------|
G-444/6-666/8-888/10-101010/11-111111\10-101010\8-888\6-666\4-3--|
D-444/6-666/8-888/10-101010/11-111111\10-101010\8-888\6-666\4-3--|
A-222/4-444/6-666/8--8-8-8-/9--9-9-9-\8--8-8-8-\6-666\4-444\2-1--|
D----------------------------------------------------------------|


| h  hammer on
| p  pull off
| b  bend note
| /  slide up
| \  slide down
| x  mute note
=============================================================================
Comments