Dead Poetic - Glass In The Trees Chords & Tabs

 

Glass In The Trees Chords & Tabs

Dead Poetic Chords & Tabs

Version: 1 Type: Tab 0 ratings
1 star 2 stars 3 stars 4 stars 5 stars
comments

Glass In The Trees Tab

   
----------------------------------------------------------------------------
			     Dead Poetic - Glass in the trees
----------------------------------------------------------------------------
Tabbed by:Jordie Brown
Email:Kacky_dude@hotmail.com

This song rocks, I heard somewhere that he wrote it
for his friend who died in a car accident.
I belive that, Listen/read the lyrics, You'll see what I mean.
Im pretty sure this tab is 99% correct.
If there are any errors, please contact me using my E-Mail. Thank you.
Enjoy!

Tuning:Drop D
D,A,D,G,B,e
Your going to have to listen for rhythm.

|--------------------------|
|Legend stuff:             |
|                          |
| / - slide                |
| . - Mute                 |
|--------------------------|


        INTRO:(Guitar 1)
e|--9-9-9-7-7-7-9-9-9-7-7-7-7-7-7-7-7---7-7-7-7-7-7-7-7-7-7-7-7-7-7-7-7-7--|
B|--9-9-9-9-9-9-9-9-9-9-9-9-9-9-9-9-9---9-9-9-9-9-9-9-9-9-9-9-9-9-9-9-9-9--|
G|-------------------------------------------------------------------------|
D|-------------------------------------------------------------------------|
A|-------------------------------------------------------------------------|
D|-------------------------------------------------------------------------|


e|--9-9-9-7-7-7-9-9-9-7-7-7-7-7-7-7-7---9-9-9-9-9-9-9-9-9-9-9-9-9-9-9-9-9--|
B|--9-9-9-9-9-9-9-9-9-9-9-9-9-9-9-9-9---9-9-9-9-9-9-9-9-9-9-9-9-9-9-9-9-9--|
G|-------------------------------------------------------------------------|
D|-------------------------------------------------------------------------|
A|-------------------------------------------------------------------------|
D|-------------------------------------------------------------------------|

       END ON
e|--9-9-9-7-7-7-9-9-9-7-7-7-7-7-7-7-7-9-9-9-7-7-7-9-9-9-7-7-7--------------|
B|--9-9-9-9-9-9-9-9-9-9-9-9-9-9-9-9-9-9-9-9-9-9-9-9-9-9-9-9-9--------------|
G|-------------------------------------------------------------------------|
D|-------------------------------------------------------------------------|
A|-------------------------------------------------------------------------|
D|-------------------------------------------------------------------------|
[ Tab from: http://www.guitartabs.cc/tabs/d/dead_poetic/glass_in_the_trees_tab.html ]
       INTRO (Guitar 2)
e|--------------------------------------------------------------------------|
B|--------------------------------------------------------------------------|
G|---6------2---2-----------------------------------------------------------|
D|---6------2---2--------------6----6-------------6--6-------7--------------|
A|---4------0---0--------------4----4-------------6--6-------7--------------|
D|-----------------------------4----4-------------6--6-------7--------------|

   END ON
e|----------|
B|----------|
G|----6-----|
D|----6-----|
A|----4-----|
D|----------|

       CHORUS (Both Guitars)
e|------------------------------------------------------------|
B|------------------------------------------------------------|
G|--6-/--4-4-4-4-4-4------------------------------------------|
D|--6-/--4-4-4-4-4-4--x2---2-2-2-2-2-2-2-2-2-2-2-2-2-2-2-2----|
A|--4-/--2-2-2-2-2-2-------2-2-2-2-2-2-2-2-2-2-2-2-2-2-2-2----|
D|-------------------------2-2-2-2-2-2-2-2-2-2-2-2-2-2-2-2----|

     Repeat Intro.


     BRIDGE (Guitar 1)(ALL MUTED)
e|----------------------------------------------.-.---------.-.-------------|
B|----.-.-.-.-.-.-.-.-.-.-.-.-.-.-.-.---.-.-.-.-5-5-.-.-.-.-5-5-.-.-.-.-----|
G|----6-6-6-6-6-6-6-6-6-6-6-6-6-6-6-6-/-4-4-4-4-4-4-4-4-4-4-4-4-4-4-4-4-----|
D|----4-4-4-4-4-4-4-4-4-4-4-4-4-4-4-4-/-2-2-2-2-2-2-2-2-2-2-2-2-2-2-2-2-----|
A|----4-4-4-4-4-4-4-4-4-4-4-4-4-4-4-4-/-2-2-2-2-2-2-2-2-2-2-2-2-2-2-2-2-----|
D|--------------------------------------------------------------------------|

    BRIDGE (Guitar 2)
e|-----0----0----0----0-----|----0------------0--4--0-----------|
B|----4-4--4-4--4-4--4-4--7-|---4--4--7--4--4--4------4---------|
G|---4----4----4----4-------|-4------4-----4----4---------------|
D|--------------------------|-----------------------------------| REPEAT
A|--------------------------|-----------------------------------|
D|--------------------------|-----------------------------------|

    Ending(Both guitars)(listen for rythm for this part)
e|-----------------------------------------------|
B|-----------------------------------------------|
G|---6------2-------6----------------------------|
D|---6-x16--2--x16--6-------8-----9--------------|
A|---4------0-------4-x16---6-x8--7--x8----------|
D|------------------4-------6-----7--------------|
Comments