Dead Poetic - Four Wall Blackmail Chords & Tabs

 

Four Wall Blackmail Chords & Tabs

Dead Poetic Chords & Tabs

Version: 1 Type: Tab 0 ratings
1 star 2 stars 3 stars 4 stars 5 stars
comments

Four Wall Blackmail Tab

Dead Poetic - Four Wall Blackmail
Submitted By: Stand Alone (projectwyze13@hotmail.com)

Tuning: Drop D (DADGBe)

Intro/ Verse                                               

E--0---0-------0---0---0------0------0--]------------
B--1-----1---------1-----1------1-------]------------
G--2-------2-------2-------2------2-----]------------
D--3---------------0--------------------]--3-3-3-3---
A---------------------------------------]--3-3-3-3---
D---------------------------------------]--3-3-3-3---



Right on the...
D---3-3-3-3--3-3-3-3----0-0-0-0--0-0-0-0---
A---3-3-3-3--3-3-3-3----0-0-0-0--0-0-0-0---
D---3-3-3-3--3-3-3-3----0-0-0-0--0-0-0-0---

Pre chorus is same as verse

[ Tab from: http://www.guitartabs.cc/tabs/d/dead_poetic/four_wall_blackmail_tab.html ]
Chorus
D---3-3---0----3333-3333--
A---3-3---0----3333-3333--
D---3-3---0----3333-3333--

Verse two same as verse one

Pre chorus

Chorus 

Bridge
D---3-3-3--0---5-5-5--3--
A---3-3-3--0---5-5-5--3--
D---3-3-3--0---5-5-5--3--

Bridge two

Gtr. 1 play the verse


Gtr. 2 play this
E-----------------12*-------------    *= Harmonics
B---------------------------------
G----5*----5*-----------12*-------
D-----------------------12*----0--
A-----------------------12*-------
D---------------------------------

E------------------------------------------
B------------------------------------------
G------------------------------------------
D---3-3-3-3--3-3-3-3----0-0-0-0--0-0-0-0---
A---3-3-3-3--3-3-3-3----0-0-0-0--0-0-0-0--- 
D---3-3-3-3--3-3-3-3----0-0-0-0--0-0-0-0---
Comments