Dead Poetic - Dream Club Murders Chords & Tabs

 

Dream Club Murders Chords & Tabs

Dead Poetic Chords & Tabs

Version: 2 Type: Tab

Dream Club Murders Tab

   
this is just that one part thats before the chorus or what not...i just found it out
when playin stuff...theres already the intro but its a little off but im not tabbin
right now even tho i already figured it out mostly...this isnt very hard



b=bend
#b#r#-bend up to the 2nd number, then bend it back
^gb=gradual bend

e|---------------------5b--------------------------------------|
B|-------------------------------------------------------------|
G|-2/7-6-9~-6-7-6\2-2-----2------------------------------------|
D|-------------------------------------------------------------|
A|-------------------------------------------------------------|
D|-------------------------------------------------------------|


then it changes a little bit at the end
[ Tab from: http://www.guitartabs.cc/tabs/d/dead_poetic/dream_club_murders_tab_ver_2.html ]
e|---------------------5b6r5-----------------------------------|
B|-------------------------------------------------------------|
G|-2/7-6-9~-6-7-6\2-2------------------------------------------|
D|-----------------------------2^gb----------------------------|
A|-------------------------------------------------------------|
D|-------------------------------------------------------------|

                                ^ dont return that 2, hold it


and i dont know the rest other than the intro which is already here...so...go for
it...this is soo easy that my brother matt can probably do it and he has played a
guitar for like 3 days right now....so your probably better than him....sooo maybe
ill eventually make an account on here and make a name but for now, no, no im not
going too.

       well, dead poetic rockz, but avenged sevenfold is better.  rock on
have fun 

           Mike. A