Dead Poetic - Dream Club Murders Chords & Tabs

 

Dream Club Murders Chords & Tabs

Dead Poetic Chords & Tabs

Version: 1 Type: Tab 0 ratings
1 star 2 stars 3 stars 4 stars 5 stars
comments

Dream Club Murders Tab

Ok, I searched everywhere for tabs to this song, and I found nothing, so I decided to
sit down and write it myself. This is just the intro, but you can use these chords to
play the rest of the song, i'm just too lazy to write the rest of the song. Maybe I'll
get to it someday. Figure out the rhythm to this one, its complex.

David Hagan,
Battallion

E|--------------------------------------------------------------------------|
B|--------------------------------------------------------------------------|
G|--------------------------------------------------------------------------|
D|---6-6-6--6-6-6--6-6-6--6-6--x-x--x-x------------------------------------|
A|---4-4-4--4-4-4--4-4-4--4-4--x-x--x-x------------------------------------|
D|---4-4-4--4-4-4--4-4-4--4-4--x-x--x-x------------------------------------|

E|--------------------------------------------------------------------------|
B|--------------------------------------------------------------------------|
G|--------------------------------------------------------------------------|
D|---11--11--11-11-11-11--11-11--11-11-11-10-10--10-10-10-10--10-10---------|
A|---8---8---8--8--8--8---8--8---8--8--8--8--8---8--8--8--8---8--8----------|
D|---8---8---8--8--8--8---8--8---8--8--8--8--8---8--8--8--8---8--8----------|
[ Tab from: http://www.guitartabs.cc/tabs/d/dead_poetic/dream_club_murders_tab.html ]
E|--------------------------------------------------------------------------|
B|--------------------------------------------------------------------------|
G|----------------8-8-8--8-8-8--8-8-8--8-8-8-8------------------------------|
D|---10-10-10-10--8-8-8--8-8-8--8-8-8--8-8-8-8-x-x--------------------------|
A|---8--8--8--8---8-8-8--8-8-8--8-8-8--8-8-8-8-x-x--------------------------|
D|---8--8--8--8---8-8-8--8-8-8--8-8-8--8-8-8-8-x-x--------------------------|

E|--------------------------------------------------------------------------|
B|--------------------------------------------------------------------------|
G|--------------------------------------------------------------------------|
D|---11--11--11-11-11-11--11-11--11-11-11-10-10--10-10-10-10--10-10---------|
A|---8---8---8--8--8--8---8--8---8--8--8--8--8---8--8--8--8---8--8----------|
D|---8---8---8--8--8--8---8--8---8--8--8--8--8---8--8--8--8---8--8----------|

E|--------------------------------------------------------------------------|
B|--------------------------------------------------------------------------|
G|----------------8-8-8--8-8-8--8-8-8--8-8-8-8------------------------------|
D|---10-10-10-10--8-8-8--8-8-8--8-8-8--8-8-8-8------------------------------|
A|---8--8--8--8---8-8-8--8-8-8--8-8-8--8-8-8-8------------------------------|
D|---8--8--8--8---8-8-8--8-8-8--8-8-8--8-8-8-8------------------------------|

E|--------------------------------------------------------------------------|
B|--------------------------------------------------------------------------|
G|--------------------------------------------------------------------------|
D|---11-11-11--11-11-11--11-11-11--11-11-11-11------------------------------|
A|---8--8--8---8--8--8---8--8--8---8--8--8--8-------------------------------|
D|---8--8--8---8--8--8---8--8--8---8--8--8--8-------------------------------|
Comments