Dead Poetic - Corporate Enthusiast Chords & Tabs

 

Corporate Enthusiast Chords & Tabs

Dead Poetic Chords & Tabs

Version: 1 Type: Tab 0 ratings
1 star 2 stars 3 stars 4 stars 5 stars
comments

Corporate Enthusiast Tab

   
-----------------------------------------------------------------------------
			  THE CORPORATE ENTHUSIAST - Dead Poetic
-----------------------------------------------------------------------------

Tabbed by: Jennifer
E-mail: sonic_speed_@hotmail.com

Dropped D

Intro:

Guitar 1 x4
Palm Mute........................
e-----------------------------------|
B-----------------------------------|
G-----------------------------------|
D-----------------------------------|
A-3-3-0-0-3-3-5-5--3-3-0-0-3-3-5-5--|
D-3-3-0-0-3-3-5-5--3-3-0-0-3-3-5-5--|

Guitar 2 (Comes in after 2x of Guitar 1) x2
e------------------------------------|
B------------------------------------|
G-7-7-7-7-7-7-7-7-7-7-7-7------------|
D-x-x-x-x-x-x-x-x-x-x-x-x------------|
A-5-5-5-5-5-5-5-5-5-5-5-5------------|
D------------------------------------|

Verse 1: x4
e---------------------------------------------------------|
B---------------------------------------------------------|
G-5-5\-2-2-2-2/-5-5-5/-7-7-7--5-5\-2-2-2-2/-5-5-5/-7-7-7--|
D-3-3\-0-0-0-0/-3-3-3/-5-5-5--3-3\-0-0-0-0/-3-3-3/-5-5-5--|
A-3-3\-0-0-0-0/-3-3-3/-5-5-5--3-3\-0-0-0-0/-3-3-3/-5-5-5--|
D-3-3\-0-0-0-0/-3-3-3/-5-5-5--3-3\-0-0-0-0/-3-3-3/-5-5-5--|

Chorus: x4
Palm Mute
  . . .       . . .       . . .       . . .    
e----------------------------------------------------|
B----------------------------------------------------|
G--------10b---------10b---------10b-----------------|
D-0-0-0--10b--0-0-0--10b--0-0-0--10b--0-0-0-0-0-0-0--|
A-0-0-0--8b---0-0-0--8b---0-0-0--8b---0-0-0-0-0-0-0--|
D-0-0-0-------0-0-0-------0-0-0-------0-0-0-0-0-0-0--|

Verse 2: x4
e---------------------------------------------------------|
B---------------------------------------------------------|
G-5-5\-2-2-2-2/-5-5-5/-7-7-7--5-5\-2-2-2-2/-5-5-5/-7-7-7--|
D-3-3\-0-0-0-0/-3-3-3/-5-5-5--3-3\-0-0-0-0/-3-3-3/-5-5-5--|
A-3-3\-0-0-0-0/-3-3-3/-5-5-5--3-3\-0-0-0-0/-3-3-3/-5-5-5--|
D-3-3\-0-0-0-0/-3-3-3/-5-5-5--3-3\-0-0-0-0/-3-3-3/-5-5-5--|

Chorus: x4
Palm Mute
  . . .       . . .       . . .       . . .    
e----------------------------------------------------|
B----------------------------------------------------|
G--------10b---------10b---------10b-----------------|
D-0-0-0--10b--0-0-0--10b--0-0-0--10b--0-0-0-0-0-0-0--|
A-0-0-0--8b---0-0-0--8b---0-0-0--8b---0-0-0-0-0-0-0--|
D-0-0-0-------0-0-0-------0-0-0-------0-0-0-0-0-0-0--|
[ Tab from: http://www.guitartabs.cc/tabs/d/dead_poetic/corporate_enthusiast_tab.html ]
Post-Chorus
Guitar 1
e---------------------------------------------------------|
B---------------------------------------------------------|
G-5-5\-2-2-2-2/-5-5-5/-7-7-7--5-5\-2-2-2-2/-5-5-5/-7-7-7--|
D-3-3\-0-0-0-0/-3-3-3/-5-5-5--3-3\-0-0-0-0/-3-3-3/-5-5-5--|
A-3-3\-0-0-0-0/-3-3-3/-5-5-5--3-3\-0-0-0-0/-3-3-3/-5-5-5--|
D-3-3\-0-0-0-0/-3-3-3/-5-5-5--3-3\-0-0-0-0/-3-3-3/-5-5-5--|

(Guitar 2)
  . . .       . . .
e-------------------------|
B-------------------------|
G--------10b---------10b--|
D-0-0-0--10b--0-0-0--10b--|
A-0-0-0--8b---0-0-0--8b---|
D-0-0-0-------0-0-0-------|

(Guitar 1)
e-----------------------------|
B-----------------------------|
G-5-5\-2-2-2-2/-5-5-5/-7-7-7--|
D-3-3\-0-0-0-0/-3-3-3/-5-5-5--|
A-3-3\-0-0-0-0/-3-3-3/-5-5-5--|
D-3-3\-0-0-0-0/-3-3-3/-5-5-5--|

(Guitar 2)
  . . .       . . .
e-------------------------|
B-------------------------|
G--------10b---------10b--|
D-0-0-0--10b--0-0-0--10b--|
A-0-0-0--8b---0-0-0--8b---|
D-0-0-0-------0-0-0-------|

(Guitar 1)
e-----------------------------|
B-----------------------------|
G-5-5\-2-2-2-2/-5-5-5/-7-7-7--|
D-3-3\-0-0-0-0/-3-3-3/-5-5-5--|
A-3-3\-0-0-0-0/-3-3-3/-5-5-5--|
D-3-3\-0-0-0-0/-3-3-3/-5-5-5--|

Bridge:
e--------------------------------------------------|
B--------------------------------------------------|
G-7~----10~----7~----10~---7~----10~---7~----10~---|
D-7~----10~----7~----10~---7~----10~---7~----10~---|
A-5~----8~-----5~----8~----5~----8~----5~----8~----|
D--------------------------------------------------|

e---------------------------------------------------------------------------|
B---------------------------------------------------------------------------|
G--10~-7/10\5~--5/7/10~-10\7/12~--12\10--10~--7/10\5~---5/7/10~---10\7/12~--|
D---------------------------------------------------------------------------|
A---------------------------------------------------------------------------|
D---------------------------------------------------------------------------|

Verse 3: x2
e---------------------------------------------------------|
B---------------------------------------------------------|
G-5-5\-2-2-2-2/-5-5-5/-7-7-7--5-5\-2-2-2-2/-5-5-5/-7-7-7--|
D-3-3\-0-0-0-0/-3-3-3/-5-5-5--3-3\-0-0-0-0/-3-3-3/-5-5-5--|
A-3-3\-0-0-0-0/-3-3-3/-5-5-5--3-3\-0-0-0-0/-3-3-3/-5-5-5--|
D-3-3\-0-0-0-0/-3-3-3/-5-5-5--3-3\-0-0-0-0/-3-3-3/-5-5-5--|

Chorus: x4
Palm Mute
  . . .       . . .       . . .       . . .    
e----------------------------------------------------|
B----------------------------------------------------|
G--------10b---------10b---------10b-----------------|
D-0-0-0--10b--0-0-0--10b--0-0-0--10b--0-0-0-0-0-0-0--|
A-0-0-0--8b---0-0-0--8b---0-0-0--8b---0-0-0-0-0-0-0--|
D-0-0-0-------0-0-0-------0-0-0-------0-0-0-0-0-0-0--|

Fill:
e------|
B------|
G------|
D-0-0--|
A-0-0--|
D-0-0--|

| /  slide up
| \  slide down
| ~  vibrato
=============================================================================
Comments