Dead Poetic - August Winterman Chords & Tabs

 

August Winterman Chords & Tabs

Dead Poetic Chords & Tabs

Version: 2 Type: Tab 0 ratings
1 star 2 stars 3 stars 4 stars 5 stars
comments

August Winterman Tab

Artist: Dead Poetic
Album: Four Sided Blackmail
Song: "August Winterman"
Tabbed by: Crushage

This is the best song on their first CD.  It is an easy song to play on guitar and I figured
it out in like 10 minutes. Their may be two guitars playing but only one is necessary.
I tabbed this because the other ones I have seen are waaaaay off!  Questions or comments,
e-mail me at Crushage@aol.com


Tuning: Drop D and medium distortion

Intro/Verse
e-------------------------|
b-------------------------|
g-------------------------|
d-----------------12------|Repeat this a few times then "strum it" for verse
a---9--9---10--10---------|
D--9--9------9------------|


e-----10---10---10-----10--------9---9---9-----9----------------|
b-------12---12---12-12-----------10--10--10-10-----------------|
g---------------------------------------------------------------|
d---------------------------------------------------------------|
a---------------------------------------------------------------|
D--9-------------------------9----------------------------------|

Chorus (listen to song for how many)
e----------------------------------------------------------------------------|
b----------------------------------------------------------------------------|
g----------------------------------------------------------------------------|
d--777777--7---4--4444444----------------------------------------------------|
a--555555--5---2--2222222----------------------------------------------------|
D--555555--5---2--2222222----------------------------------------------------|

Verse again
e-------------------------|
b-------------------------|
g-------------------------|
d-----------------12------|
a---9--9---10--10---------|
D--9--9------9------------|


e-----10---10---10-----10--------9---9---9-----9----------------|
b-------12---12---12-12-----------10--10--10-10-----------------|
g---------------------------------------------------------------|
d---------------------------------------------------------------|
a---------------------------------------------------------------|
D--9-------------------------9----------------------------------|
[ Tab from: http://www.guitartabs.cc/tabs/d/dead_poetic/august_winterman_tab_ver_2.html ]
Chorus again (repeat as needed)
e----------------------------------------------------------------------------|
b----------------------------------------------------------------------------|
g----------------------------------------------------------------------------|
d--777777--7---4--4444444----------------------------------------------------|
a--555555--5---2--2222222----------------------------------------------------|
D--555555--5---2--2222222----------------------------------------------------|

Go immediately to this bridge
e------------------------------------------------------------------|
b------------------------------------------------------------------|
g------------------------------------------------------------------|
d-12121212121212-12-121212-111111-7777777-7--777--999--------------|
a-9-9-9-9-9-9-9--9--9-9-9--9-9-9--5555555-5--555--999--------------|
D-9-9-9-9-9-9-9--9--9-9-9--9-9-9--5555555-5--555--777--------------|


e------------------------------------------------------------|
b------------------------------------------------------------|
g------------------------------------------------------------|
d-11/14-141414/11-11/7-7/9-99-----9/12-12--9/12-12--9/12-12--|
a-9/12--121212/9--9/5--5/7-77-----9/12-12--9/12-12--9/12-12--|
D-9/12--121212/9--9/5--5/7-77-----9/12-12--9/12-12--9/12-12--|

this is the best part of the song! (x's are muffled strings)
e----------------------------------------------------------------------------------------|
b----------------------------------------------------------------------------------------|
g----------------------------------------------------------------------------------------|
d-14/11-1111--x-x---141414/11-1111------------------11--x-x--7/9-99--------------7/9-99--|
a-12/9--1111--x-x---141414/9--9-9--------------------9--x-x--5/7-77--------------5/7-77--|
D-12/9--9-9---x-x---121212/9--9-9--(9)(9)(palmmute)--9--x-x--5/7-77---(7)-(7)pm--5/7-77--|

Ending
Repeat this twice
e-----10---10---10-----10--------9---9---9-----9-----------------------------------|
b-------12---12---12-12-----------10--10--10-10------------------------------------|
g----------------------------------------------------------------------------------|second time end w/
d-------------------------------------------------7-9---------------------------4--|
a-------------------------------------------------5-7---------------------------2--|
D--9-------------------------9--------------------5-7---------------------------2--|
Comments