Dead Kennedys - Religious Vomit Chords & Tabs

 

Religious Vomit Chords & Tabs

Dead Kennedys Chords & Tabs

Version: 1 Type: Tab 0 ratings
1 star 2 stars 3 stars 4 stars 5 stars
comments

Religious Vomit Tab

#----------------------------------PLEASE NOTE---------------------------------#
#This file is the author's own work and represents their interpretation of the #
#song. You may only use this file for private study, scholarship, or research. #
#------------------------------------------------------------------------------##
Date: Sat, 5 Aug 1995 10:29:58 -0600 (MDT)
From: Jeff Mutt 
Subject: Religious Vomit By the The Dead Kennedys




intro...
e-|--------------|---------------|
B-|--------------|---------------|
G-|---7---7---7--|---7---7---7---|
D-|-6-7-6-7-6-7--|-6-7-6-7-6-7-6-|
A-|-6-5-6-5-6-5--|-6-5-6-5-6-5-6-|
E-|-4---4---4----|-4---4---4---4-|

e-|--------------------------------------------|
B-|--------------------------------------------|
G-|-7-7--9-9-11-11-11-11-7-7--9-9-11-11-11-11--|
D-|-7-7--9-9-11-11-11-11-7-7--9-9-11-11-11-11--|
A-|-5-5--7-7--9--9--9--9-5-5--7-7--9--9--9--9--|
E-|--------------------------------------------|
all religions make me want to throw up ...etc

e-|--------------------------------------------|
B-|--------------------------------------------|
G-|-7-7--9-9-11-11-11-11-7-7--9-9-11-11-11-11--|
D-|-7-7--9-9-11-11-11-11-7-7--9-9-11-11-11-11--|
A-|-5-5--7-7--9--9--9--9-5-5--7-7--9--9--9--9--|
E-|--------------------------------------------|


e-|------------------------------------|-----------------------------------|
B-|------------------------------------|-----------------------------------|
G-|----------3-3-3-3-------------------|----------3-3-3-3------------------|
D-|-5-5-5-5--3-3-3-3--3-3-3-3-3-3-3-3--|-5-5-5-5--3-3-3-3--3-3-3-3-3-3-3-3-|
A-|-5-5-5-5--1-1-1-1--3-3-3-3-3-3-3-3--|-5-5-5-5--1-1-1-1--3-3-3-3-3-3-3-3-|
E-|-3-3-3-3-----------1-1-1-1-1-1-1-1--|-3-3-3-3-----------1-1-1-1-1-1-1-1-|
they all claim that they have the truth...etc

e-|-----------------------------------------------------------------
B-|-----------------------------------------------------------------
G-|----------3-3-3-3-----------5-5--3-3--2-2-2-2-------3-3----------
D-|-5-5-5-5--3-3-3-3--3-3-3-3--5-5--3-3--2-2-2-2--5-5--3-3--5-5-5-5-
A-|-5-5-5-5--1-1-1-1--3-3-3-3--3-3--1-1--0-0-0-0--5-5--1-1--5-5-5-5-
E-|-3-3-3-3-----------1-1-1-1---------------------3-3-------3-3-3-3-


e-|---------------------------------------
B-|---------------------------------------
G-|-5-5--3-3--2-2-2-2-------3-3-----------
D-|-5-5--3-3--2-2-2-2--5-5--3-3--5-5-5-5--
A-|-3-3--1-1--0-0-0-0--5-5--1-1--5-5-5-5--
E-|--------------------3-3-------3-3-3-3--

fill...

e-|--------------------
B-|--------------------
G-|------6-6-----------
D-|-4-4--6-6--9-9-9-9--
A-|-4-4--4-4--9-9-9-9--
E-|-2-2-------7-7-7-7--


e-|---------------------------------------------|
B-|---------------------------------------------|
G-|-7-7--9-9-11-11-11-11--7-7--9-9-11-11-11-11--|
D-|-7-7--9-9-11-11-11-11--7-7--9-9-11-11-11-11--|
A-|-5-5--7-7--9--9--9--9--5-5--7-7--9--9--9--9--|
E-|---------------------------------------------|
all religious make me wanna throw up...etc

e-|---------------------------------------------|
B-|---------------------------------------------|
G-|-7-7--9-9-11-11-11-11--7-7--9-9-11-11-11-11--|
D-|-7-7--9-9-11-11-11-11--7-7--9-9-11-11-11-11--|
A-|-5-5--7-7--9--9--9--9--5-5--7-7--9--9--9--9--|
E-|---------------------------------------------|

[ Tab from: http://www.guitartabs.cc/tabs/d/dead_kennedys/religious_vomit_tab.html ]
e-|------------------------------------------------------------------------|
B-|------------------------------------------------------------------------|
G-|-----------5-5-5-5------------5-5-5-5-----------5-5-5-5---------5-5-5-5-|
D-|-5-5--7-7--5-5-5-5--5-5--7-7--5-5-5-5--5-5--7-7-5-5-5-5-5-5-7-7-5-5-5-5-|
A-|-5-5--7-7--3-3-3-3--5-5--7-7--3-3-3-3--5-5--7-7-3-3-3-3-5-5-7-7-3-3-3-3-|
E-|-3-3--5-5-----------3-3--5-5-----------3-3--5-5---------3-3-5-5---------|
all religions suck...etc


e-|-------------------------------------------------------------------|
B-|-------------------------------------------------------------------|
G-|---------3-3-3-3--------------------------3-3-3-3------------------|
D-|-5-5-5-5-3-3-3-3-3-3-3-3-3-3-3-3--5-5-5-5-3-3-3-3-3-3-3-3-3-3-3-3--|
A-|-5-5-5-5-1-1-1-1-3-3-3-3-3-3-3-3--5-5-5-5-1-1-1-1-3-3-3-3-3-3-3-3--|
E-|-3-3-3-3---------1-1-1-1-1-1-1-1--3-3-3-3---------1-1-1-1-1-1-1-1--|
they all claim that they have the truth...etc

e-|--------------------------------------------------------------|
B-|--------------------------------------------------------------|
G-|---------3-3-3-3----------5-5-3-3-2-2-2-2-------3-3-----------|
D-|-5-5-5-5-3-3-3-3-3-3-3-3--5-5-3-3-2-2-2-2--5-5--3-3--5-5-5-5--|
A-|-5-5-5-5-1-1-1-1-3-3-3-3--3-3-1-1-0-0-0-0--5-5--1-1--5-5-5-5--|
E-|-3-3-3-3---------1-1-1-1-------------------3-3-------3-3-3-3--|


e-|---------------------------------------|
B-|---------------------------------------|
G-|--5-5--3-3-2-2-2-2-------3-3-----------|
D-|--5-5--3-3-2-2-2-2--5-5--3-3--5-5-5-5--|
A-|--3-3--1-1-0-0-0-0--5-5--1-1--5-5-5-5--|
E-|--------------------3-3-------3-3-3-3--|


e-|---------------------------------------------------------------|
B-|---------------------------------------------------------------|
G-|----6-----8--4-----6-----8--4-----6-----8--4--5-5-5-5--3-3-3-3-|
D-|-4--6--9--8--4--4--6--9--8--4--4--6--9--8--4--5-5-5-5--3-3-3-3-|
A-|-4--4--9--6--2--4--4--9--6--2--4--4--9--6--2--3-3-3-3--1-1-1-1-|
E-|-2-----7--------2-----7--------2-----7-------------------------|


e-|-------------------------------------------|
B-|-------------------------------------------|
G-|-7-7-9-9-11-11-11-11--7-7-9-9-11-11-11-11--|
D-|-7-7-9-9-11-11-11-11--7-7-9-9-11-11-11-11--|
A-|-5-5-7-7--9--9--9--9--5-5-7-7--9--9--9--9--|
E-|-------------------------------------------|
all religions make me wanna throw up..etc

e-|-------------------------------------------|
B-|-------------------------------------------|
G-|-7-7-9-9-11-11-11-11--7-7-9-9-11-11-11-11--|
D-|-7-7-9-9-11-11-11-11--7-7-9-9-11-11-11-11--|
A-|-5-5-7-7--9--9--9--9--5-5-7-7--9--9--9--9--|
E-|-------------------------------------------|

e-|-------------------------------------------------------------------|
B-|-------------------------------------------------------------------|
G-|---------5-5-5-5----------5-5-5-5---------5-5-5-5----------5-5-5-5-|
D-|-5-5-7-7-5-5-5-5--5-5-7-7-5-5-5-5-5-5-7-7-5-5-5-5--5-5-7-7-5-5-5-5-|
A-|-5-5-7-7-3-3-3-3--5-5-7-7-3-3-3-3-5-5-7-7-3-3-3-3--5-5-7-7-3-3-3-3-|
E-|-3-3-5-5----------3-3-5-5---------3-3-5-5----------3-3-5-5---------|
all religions suck...etc

outro...
e-|----------------------------------------------------------------------|
B-|----------------------------------------------------------------------|
G-|----------------------------------------------------------------------|
D-|-5-5-8-8--5-5-8-8--5-5-8-8--5-5-8-8--5-5-8-8--5-5-8-8--5-5-8-8--5-5-8-|
A-|-5-5-8-8--5-5-8-8--5-5-8-8--5-5-8-8--5-5-8-8--5-5-8-8--5-5-8-8--5-5-8-|
E-|-3-3-6-6--3-3-6-6--3-3-6-6--3-3-6-6--3-3-6-6--3-3-6-6--3-3-6-6--3-3-6-|
they make me sick..etc


transcribed by rambozo at jjm@nucleus.com


Comments