Dead Kennedys - Mtv Get Off The Air Chords & Tabs

 

Mtv Get Off The Air Chords & Tabs

Dead Kennedys Chords & Tabs

Version: 1 Type: Bass Tab 0 ratings
1 star 2 stars 3 stars 4 stars 5 stars
comments

Mtv Get Off The Air Bass Tab

This is how I think DK's great song against pop culture goes:
This is the bass tab to MTV Get Off The Air
e-mail barbed84@optonline.net with corrections or suggestions

   -----------------------          -------------------------------
 1 -----------------------        2 -------------------------------
   ------------2-2--4-4---          ------------2-0------------2-2-
   ----2--2-2-------------          -2--2-2-2-2-----2--2-2-2-2-----


   -----------------------------
 3 -----------------------------
   -2--2-2-0--0-0--2--2-2-0--0-0
   -----------------------------

   ----------------------------------------------
 4 ----------------------------------------------
   -2--2-2-0--0-0-2--2-2-5--5--5--5--5--5--5--5--
   ----------------------------------------------
[ Tab from: http://www.guitartabs.cc/tabs/d/dead_kennedys/mtv_get_off_the_air_btab.html ]
                                     ________1_________  ________2_________
    //----------------/------/------/-----3--4--5-6----//------------------
 5 //o---------------/-o-/--/-o-/--/--4--------------o//-444444422344444444     
   //o-4--4--4-2-2-3 /--/-o-/--/-o-/-----------------o//-------------------
   //----------------/------/------/------------------//-------------------


    --------------------           -------------------------
 6  -44444442234-3-2-1--        7  ----------------------2--
    --------------------           --4----2----0-------2----
    --------------------           ----------------4--------


   ---------------------------------------------------------------
 8 -------1---3-----4--421--446421---------1---3-----4--421-------
   -44-422-244-42424--4---42------42-44-422-244-42424--4---424----
   ---4--------------------------------4--------------------------

   --------------------
 9 ----------------4---
   -4-4-4-2-2-3-4------
   --------------------

song order:  1(18x)/2(3x)/3/2(2x)/4/5/2(2x)/3/2(2x)/4/5/6/8/7/8/7/8/7/9
Comments