Dead Kennedys - Kill The Poor Chords & Tabs

 

Kill The Poor Chords & Tabs

Dead Kennedys Chords & Tabs

Version: 1 Type: Tab 0 ratings
1 star 2 stars 3 stars 4 stars 5 stars
comments

Kill The Poor Tab

Song: Kill The Poor (solo)
Artist: Dead Kennedys
Album: Fresh Fruit, Rotting Vegetables
Tuning: Standard

im going to do the bridge too cuz it leads in to the solo
[ Tab from: http://www.guitartabs.cc/tabs/d/dead_kennedys/kill_the_poor_tab.html ]
|----------------------------------------------------------------------|
|-------------13-13-12---------------11-11-10--------------------------|
|-12-12-12-12-12-12-12---10-10-10-10-10-10-10---9-9-9-9-9-9-9-9-9-9-9--|
|-12-12-12-12-12-12-12---10-10-10-10-10-10-10---9-9-9-9-9-9-9-9-9-9-9--|
|-10-10-10-10-10-10-10----8--8--8--8--8--8--8---7-7-7-7-7-7-7-7-7-7-7--|
|----------------------------------------------------------------------|

|-------------------------              ----12-15-14-12-------|
|-------------------------   play 6x    -12--------------10fb-|
|-12-12-10h12-12-10h12-12-              ----------------------|
|-------------------------   6th time   ----------------------|
|-------------------------     add      ----------------------|
|-------------------------              ----------------------|

|----------------|
|-7-7-7-7-8-8-7--|   play 4 x i think, then go back to verse
|-7-7-7-7-7-7-7--|
|-7-7-7-7-7-7-7--|    (there are some words that go w/ this part)
|-5-5-5-5-5-5-5--|
|----------------|
Comments