Dead Kennedys - Kill The Poor Chords & Tabs

 

Kill The Poor Chords & Tabs

Dead Kennedys Chords & Tabs

Version: 1 Type: Bass Tab 0 ratings
1 star 2 stars 3 stars 4 stars 5 stars
comments

Kill The Poor Bass Tab

   
This is the bass tab for "Kill the Poor" by the Dead Kennedys
from "Fresh Fruit for Rotting Vegetables"

Juha Kivijarvi worked out the guitar chords for this and I
worked it out from there so he gets most of the credit.

intro
G----------------------------------------------------------------------
D----------------------------------------------------------------------
A-5________________2________________--------------------------5--5-2---
E-----------------------------------3________________5________------55-

G----------------------------------------------------------------------
D------------3-2-------------------------------------------------------
A-5_____5--5-----5-2_____2--2-5-3-2------------------------------------
E-----------------------------------2________2_______5________________-

riff 1
G------------------
D------------------  x5
A-5-5555552223-333-
E------------------

riff 2
G------------------
D------------------
A-0-00000000000000-
E------------------

riff 1 x3
riff 2
[ Tab from: http://www.guitartabs.cc/tabs/d/dead_kennedys/kill_the_poor_btab.html ]
riff 3
G--------------------------------------------------------------------
D----------------32--------------------------------------------------
A-5-555555555555---52-222222222222-532---------------------5-2----5--
E-------------------------------------2-2222222222222222-55---5-55-5-

riff 1 x5
riff 2

riff 1 x3
riff 2

riff 3 x2

riff 4
G----------------------------------------------------------------
D----------------------------------------------------------------
A-10-10101010101010101010101010108-888888888888887-77777777777777
E----------------------------------------------------------------
	(these are tens)

     -----------------
     -----------------	x2
     -----------------
     0-00000000000000-

riff 1 x5
riff 2

riff 1 x3
riff 2

riff 3 x3

riff 4

I'm not so sure about the end of riff 4.
The ryhthm should be correct : -55- are 16ths
                               -5-5- are 8ths
                               -5--5- are 4ths	etc
                               -5________- means sustain 5 for _ 16ths
                                (half a bar in this case, 8 16ths)
	Nick



Comments