Dead Kennedys - Ill In The Head Chords & Tabs

 

Ill In The Head Chords & Tabs

Dead Kennedys Chords & Tabs

Version: 1 Type: Bass Tab 0 ratings
1 star 2 stars 3 stars 4 stars 5 stars
comments

Ill In The Head Bass Tab

That's right, I've never seen an accurate tab for this song until
now.  I'll do the guitar tab when I get around to it.

Dead Kennedy's - Ill In The Head 
Bass Tab by Tommy Boy

Intro

-------------------------------------------------------------------
-------------------------------------------------------------------
-10-9-8-9-8-7-6-7-6-5-4-5-4-3-2-1-0--------------------------------
-----------------------------------4-4-4-4-4-4-4-4-4-4-4-4-4-4-4-4-

Bridge

---------------------------------------3-4-5---------------
---------------------------------2-3-4---------------------
-3--3-3-3-3-3-3-4--3-3--3-3-3-3--------------4--3-3--3-3-3-
-----------------------------------------------------------

Verse 

-------------------------
----2--------------------
-3---3--3----------------
------4--4-1--2-2--2-2-2-

Fills between vocal lines in the verses

#1
----------3h5------------3h5--
----4--6-----------4--6-------
-3-----------3--6-----------3-
------------------------------

#2
-10---------10h11-8--10---------10h11-8-
-----11--9---------------11--9----------
----------------------------------------
----------------------------------------

#3 
-10---------10h11-8--10---------10h11-8-
-----11--9---------------11--9----------
----------------------------------------
----------------------------------------

-----------------10---------10h11-8-
----------8h10-------11--9----------
---9--11----------------------------
-8-------------8--------------------

#4
------------------10---------10h11-8-
-----------8h10-------11--9----------
----9--11----------------------------
-8--------------8--------------------

10---------10h11-8-------------------
----11--9-------------------8h10-----
----------------------9--11----------
-------------------8-------------8---


Chorus
[ Tab from: http://www.guitartabs.cc/tabs/d/dead_kennedys/ill_in_the_head_btab.html ]
-----------------------------------------------------------
-------------------------------3--3-3-3-3-3-3-5--5-6-6-6-6-
-4--4-4-4-4-4-4--6--6-7--7-7-7-----------------------------
-----------------------------------------------------------

----------------------------------------------5-------------
-------------------------------4--4-4-4-4-4-4--3-3-3--3-3-3-
-4--4-4-4-4-4-4--6--6-7--7-7-7------------------------------
------------------------------------------------------------

Waltzy sounding part (People closing in. . .)

-----6------6----------------------------------6---------
---6---6-----------5------5------4------4----6---6----5--
-4-------4-------5---5---------4---4-------4-------4-----
---------------3-------3-----2-------2-------------------

Part right after the last chorus

(triplets)
-------------------------------------------------------------
-------------------4-4-4-3-3-3-3-3-3-5-5-5-6-6-6-4-4-4-3-3-3-
-4-4-4-6-6-6-7-7-7-------------------------------------------
-------------------------------------------------------------

Part near the end, Jello squeals "Rheeeee!!!" to start it off.
I'm not sure if this one is 100% accurate, sounds like it to me
though

Play twice through this
-----5-4-0---------------5-4-0-----------
-0-1-------1---------0-1-------1---------
-------------0-1--1--------------3-5--5--
-----------------------------------------

Ending

-----------------------------------------------------------
-----------------------------------------------------------
-3--3-3-3-3-3-3-4--3-3--3-3-3-5--5-5-5-5-5-5-6--5-5--5-5-5-
-----------------------------------------------------------

----6--------6------------------6--------------------------
-------5--------------5------6-----5-----------------------
-4--------------4--------4------------5-----4--------------
----------3--------3---------------------3-----------------

Here's the order that you play the fills during the verses:

First verse: 1 2 1 3
Second and third verses: 1 1 2 4


That song was kind of tough to figure out!
As always, listen to the track to get the timing and order 
of the parts.
Not so difficult once you get your head around the time signature
changes.

Comments