Dead Kennedys - Holiday In Cambodia Chords & Tabs

 

Holiday In Cambodia Chords & Tabs

Dead Kennedys Chords & Tabs

Version: 3 Type: Tab 0 ratings
1 star 2 stars 3 stars 4 stars 5 stars
comments

Holiday In Cambodia Tab

   
This song is tab bye Dr.x punk guitar its pretty easy you will learn it if ur a kenneyds fan

               __________________let ring
e|-17\-----------------------------------------------------------------------|
B|-------13\-----------------------------------------------------------------|
G|---------------14---14---14--14--------------------------------------------|
D|---------------------------------------------------------------------------|
A|-------------12--12----12--12----------------------------------------------|
E|---------------------------------------------------------------------------|

e|---------------------------------------------------------------------------|
B|---------------------------------------------------------------------------|
G|-14-\-5--9\-8--8--5-5-5-4/--11\10--10--------------------------------------|
D|--X---X--X--X--X--X-X-X-X----X--X---X--------------------------------------|
A|-12-\-3--7\-6--6--3-3-3-2/---9\-8---8--------------------------------------|
E|---------------------------------------------------------------------------|

e|---------------------------------------------------------------------------|
B|---------------------------------------------------------------------------|
G|---------------------------------------------------------------------------|
D|---------------------------------------------------------------------------|
A|-3-3-3-2--2-1-0-0-0-0-0-0-0-0-3-3-3-2--2-1-0-0-0-0-0-0-0-0-----------------|
E|---------------------------------------------------------------------------|
   palm mute
  ________________________________________________________________
e|---------------------------------------------------------------------------|
B|---------------------------------------------------------------------------|
G|---------------------------------------------------------------------------|
D|---------------------------------------------------------------------------|
A|-3-3-3-2-2-2-1-1-0-0-0-0-0-0-0-0-3-3-3-2-2-2-1-1-0-0-0-0-0-0-0-0-----------|
E|---------------------------------------------------------------------------|
  palm mute
  __________________________________________________ dont mute the last 0
e|---------------------------------------------------------------------------|
B|---------------------------------------------------------------------------|
G|---------------------------------------------------------------------------|
D|---------------------------------------------------------------------------|
A|-3-3-3-2-2-2-1-1-0-0-0-0-0-0-0-0-3-3-3-2-2-2-1-1-0-0-----------------------|
E|---------------------------------------------------------------------------|
let ring
____________________________________________________
e|-----7-----------10-----------7-----------10-------------------------------|
B|-------8------------10----------8------------10----------------------------|
G|---7-----7----11-------11---7-----7----11-------11---do this all twice-----|
D|-9---------12-------------9---------12-------------------------------------|
A|---------------------------------------------------------------------------|
E|---------------------------------------------------------------------------|
[ Tab from: http://www.guitartabs.cc/tabs/d/dead_kennedys/holiday_in_cambodia_tab_ver_3.html ]
e|---------------------------------------------------------------------------|
B|---------------------------------------------------------------------------|
G|-7-7-7-7-7-7-7-7-5-5-5-5-5-5-5-5-------5-5-5-5----------------do this all--|
D|--------------------------------5-5-5-5-------7-7-7-7-7-7-7-7----twice-----|
A|---------------------------------------------------------------------------|
E|---------------------------------------------------------------------------|

e|---------5-5-------------7-7-----------------8-8--------------7-7------------|
B|-----6-6-----6-6-----8-8-----8-8-------10-10----10-10-----8-8-----8-8--------|
G|-7-7-------------9-9-------------10-10----------------9-9--------------------|
D|-----------------------------------------------------------------------------|
A|-do this all twice except on the second time the last to eights are replaced-|
E|-with two sevens on the e string---------------------------------------------|

* = do this chord 5 times
e|------------------------------------13-13-13-13-13-13-13-13-13-13-13-13-13-|
B|-2*-5-7*-5-2*-5-7*-5-2*-5-7*-5-2*-5-13-13-13-13-13-13-13-13-13-13-13-13-13-|
G|-2--5-7--5-2--5-7--5-2--5-7--5-2--5-14-14-14-14-14-14-14-14-14-14-14-14-14-|
D|-2--5-7--5-2--5-7--5-2--5-7--5-2--5-15-15-15-15-15-15-15-15-15-15-15-15-15-|
A|-0--3-5--3-0--3-5--3-0--3-5--3-0--3----------------------------------------|
E|---------------------------------------------------------------------------|
#= do 24 times
e|-17#-18#-19#-18-18-18-18-18-18-17-17-16-16-15-15-14-14-13-13-12-12-11-10-9-8-7-6-|
B|---------------------------------------------------------------------------------|
G|---------------------------------------------------------------------------------|
D|---------------------------------------------------------------------------------|
A|---------------------------------------------------------------------------------|
E|---------------------------------------------------------------------------------|

e|---------------------------------------------------------------------------|
B|---------------------------------------------------------------------------|
G|-\4-/9-10-\5-\4-9-/10-\5-\4-9-\5-\4-9-\10----------------------------------|
D|--X--X--X--X--X-X---X--X--X-X--X--X-X---X----------------------------------|
A|-\2--7--8-\3-\2-7--/8-\3-\2-7-\3-\2-7--\8----------------------------------|
E|---------------------------------------------------------------------------|
let ring
  _____________________________________
e|---------------------------------------------------------------------------|
B|---------------------------------------------------------------------------|
G|---------------------------------------------------------------------------|
D|--2-2-2-2-5-5-5-5-7-7-7-7-10-10-10-10--------------------------------------|
A|-0-0-0-0-3-3-3-3-5-5-5-5-8--8--8--8----------------------------------------|
E|---------------------------------------------------------------------------|

* = do this chord 5 times
e|------------------------------------13-13-13-13-13-13-13-13-13-13-13-13-13-|
B|-2*-5-7*-5-2*-5-7*-5-2*-5-7*-5-2*-5-13-13-13-13-13-13-13-13-13-13-13-13-13-|
G|-2--5-7--5-2--5-7--5-2--5-7--5-2--5-14-14-14-14-14-14-14-14-14-14-14-14-14-|
D|-2--5-7--5-2--5-7--5-2--5-7--5-2--5-15-15-15-15-15-15-15-15-15-15-15-15-15-|
A|-0--3-5--3-0--3-5--3-0--3-5--3-0--3----------------------------------------|
E|---------------------------------------------------------------------------|

Pol Pot!
e|-----|
B|-----|
G|---2-|
D|---2-|
A|-3-0-|
E|-----|
Comments