Dead Kennedys - Holiday In Cambodia Chords & Tabs

 

Holiday In Cambodia Chords & Tabs

Dead Kennedys Chords & Tabs

Version: 4 Type: Bass Tab 0 ratings
1 star 2 stars 3 stars 4 stars 5 stars
comments

Holiday In Cambodia Bass Tab

HOLIDAY IN CAMBODIA by Dead Kennedys
:
# main #     
G----------------------------|
D-1010-1099-988-77-77-77-77--|
A--0-0--000-000-00-00-00-00--|
E----------------------------|
:
# verse # *=play 8X #=play 4X                                       >
G-|----X4-----|-------------X2-----------------|--------------------->
D-|-------*---|---*----*---------#-------------|---*----*----*----*-->
A-|--*---5----|--5----3-----#---3-----#---3-3--|--5----7----8----7--->
E-|-3---------|------------3---------5-----5-5-|--------------------->
>verse          (11's and 10's)
>----------------------------|
>---*----*----*--------------|
>--5----7----8---1110111011\-|
>----------------------------|
:
# chorus # X2 *=play 4-5X                   
G------------------------|---END1---|------END2--------|
D---------*----*---------|-*--------|------------------|
A---*---35----5-----*---3|5-----3---|----888---888-----|
E--5---------------5-----|----33-3\-|-111---111---111--|
:
then play main
:
# verse2 # *=play 8X #=play 4X                                                  >
G-|----X4-----||-----------X2------------|-END1--|--------END2------------------>
D-|-------*---||---*----*---------#------|-------|---*----*----*----#--1210----->
A-|--*---5----||--5----3-----#---3-----#-|--3-3--|--5----7----8----7-------1210->
E-|-3---------||------------3---------5--|---5-5-|------------------------------>
>verse          (11's and 10's)
>----------------------------|
>---*----*----*--------------|
>--5----7----8---1110111011\-|
>----------------------------|
:
then play verse, chorus, main, 2nd part of verse, 2nd part verse2
:
# solo bg # X6 *=play 8X (last time, dont play last 3 notes)
G---------------------------|
D---*----*----*-------------|
A--0----3----5----87878787--|
E---------------------------|
:
then play chorus
:
# outro #
G-------|
D-------|
A-------|
E--8-5--|
:
Classic.
Tabbed by Squirrels2Nuts (josh_wright@hotmail.com) 1.04.2001
[ Tab from: http://www.guitartabs.cc/tabs/d/dead_kennedys/holiday_in_cambodia_btab_ver_4.html ]
Comments