Dead Kennedys - Give Me Convience Or Give Me Death Chords & Tabs

 

Give Me Convience Or Give Me Death Chords & Tabs

Dead Kennedys Chords & Tabs

Version: 1 Type: Tab 0 ratings
1 star 2 stars 3 stars 4 stars 5 stars
comments

Give Me Convience Or Give Me Death Tab

   
Give Me Convience or Give me Death
Tabbed by Rbm90120
=============================================================================
This Albulm has many great tracks. I suggest if you don't have it buy it, don't
have the money then rob a homeless person, If the homeless person don't have
money rob your grandma and buy the Cd. If you follow those steps then you will
leave a much happier life. (not being serious ofcourse) This MIGHT be the last
Dead Kennedys albulm I submit, since there is not much Dead Kennedy Albulm left
to do. I might start on Gwar, but maybe I will do the last 2 albulms, I don't
know. (Rate and comment this and do the same things for the other albulms)
=============================================================================
1. Police Truck				:Djdobson
2. Too Drunk to Fuck  			:Unknown
3. California Uber Alles 		:Unknown
4. The Man With the Dogs 		:Tabora
5. Insight  				:Dumb Kids
6. Life Sentence  			:Can't Find
7. A Child and His Lawnmower		:MxTabs
8. Holiday in Cambodia			:Toby Branfort
9. I Fought the Law  			:Unknown
10. Saturday Night Holocaust   		:CANT FIND
11. Pull My Strings   			:Unknown
12. Short Songs 			:Unknown
13. Straight A's 			:Jeff Munt
14. Kinky Sex Makes the World Go Round  :CANT FIND
15. The Prey 				:CANT FIND
16. Night of the Living Rednecks  	:CANT FIND
17. Buzzbomb From Pasadena  		:Ramboza

------------------------------------------------------------------------------------------
					Police Truck
------------------------------------------------------------------------------------------

pm=palm mute
b=bend
r=release

Intro

|-----------|--0------------7----10-9-8-7----8-7-6-5--------------|
|--3--2--1--|--0----------------------------------------3-2-1-0---|
|--0--0--0--|--0--------------------------------------------------|pick
|--2--2--2--|--2--------------------------------------------------|slide
|-----------|--2--------------------------------------------------|
|-----------|--0--------------------------------------------------|

Verse 1
        x15                  x7
|----------|-6-6-7-7-|---------|-6-6-7-7-|
|----------|---------|---------|---------|
|----------|---------|---------|---------|
|----------|---------|---------|---------|
|-2-2-2-2--|---------|-2-2-2-2-|---------|
|-0-0-3-0--|---------|-0-0-3-0-|---------|
 pm......              pm.....

Chorus 1

|----------------------------------------------------------7-7-6-6----7-7-6-6-|
|--------------------3-3-2-1--3-3-1-0-----------------------------------------|
|-4-4-4-4-3-3-2-----------------------4-4-4-4-3-3-4-4-------------------------|
|-4-4-4-4-3-3-2-5-2-------------------4-4-4-4-3-3-4-4-2-----------------------|
|-2-2-2-2-1-1-0-5-2-------------------2-2-2-2-1-1-2-2-2-----------------------|
|---------------3-0-----------------------------------0-----------------------|

Verse 2
        x7
|---------|---------|
|---------|---------|
|---------|-2-2-3-3-|
|---------|---------|
|-2-2-2-2-|---------|
|-0-0-3-0-|---------|
 pm......

Chorus 2

|-------------------------------|
|-------------------------------|
|-4-4-4-4-3-3-2------2b3r2-0----|
|-4-4-4-4-3-3-2-5-2----------2--|
|-2-2-2-2-1-1-0-5-2-------------|
|---------------3-0-------------|

Verse 3
        x7
|---------|---------|
|---------|---------|
|---------|-2-2-3-3-|
|---------|---------|
|-2-2-2-2-|---------|
|-0-0-3-0-|---------|
 pm......

Chorus 3
                                                   x3                 x4
|------------------|---------------------------------|------------------|
|------------------|---------------------------------|------------------|
|-4-4-4-4-3-3-4----|---------------------------------|------------------|
|-4-4-4-4-3-3-4-2--|---------------------------------|-2-2-1-1-0-0-1-1--|
|-2-2-2-2-1-1-2-2--|-2-2-2-2-2-2-2-2-2-1-1-1-0-0-----|------------------|
|---------------0--|-----------------------------3-3-|------------------|

Solo

|-------------------------------------------------------------------------|
|-------------------------15-14-15-14-15-14-15-16-17-16-17-16-17-16-17-16-|
|-16-15-16-15-16-15-16-15-------------------------------------------------|
|-------------------------------------------------------------------------|
|-------------------------------------------------------------------------|
|-------------------------------------------------------------------------|

|-------------------------------------------------------------------------|
|-------------------------------------------------15-14-15-14-15-14-15-16-|
|-14-13-14-13-14-13-14-15-16-15-16-15-16-15-16-15-------------------------|
|-------------------------------------------------------------------------|
|-------------------------------------------------------------------------|
|-------------------------------------------------------------------------|
                         x4
|--------------------------|
|-17-16-17-16-17-16-17-16--|
|--------------------------|
|--------------------------|
|--------------------------|
|--------------------------|

Verse 4
        x3                  x3
|---------|-7-7-6-6-|---------|-7-7-6-6-|
|---------|---------|---------|---------|
|---------|---------|---------|---------|
|---------|---------|---------|---------|
|-2-2-2-2-|---------|-2-2-2-2-|---------|
|-0-0-3-0-|---------|-0-0-3-0-|---------|
 pm......            pm......

Verse 4 (continued)
         x7                  x7
|----------|-6-6-7-7-|---------|-6-6-7-7-|
|----------|---------|---------|---------|
|----------|---------|---------|---------|
|----------|---------|---------|---------|
|-2-2-2-2--|---------|-2-2-2-2-|---------|
|-0-0-3-0--|---------|-0-0-3-0-|---------|
 pm......              pm.....

Chorus 4
                                                             x8
|----------------------------------------------------|---------|
|--------------------3-2-1--3-3-1-0------------------|---------|
|-4-4-4-4-3-3-2----------------------4-4-4-4-3-3-4-4-|---------|
|-4-4-4-4-3-3-2-5-2------------------4-4-4-4-3-3-4-4-|---------|
|-2-2-2-2-1-1-0-5-2------------------2-2-2-2-1-1-2-2-|-2-2-2-2-|
|---------------3-0----------------------------------|-0-0-3-0-|
                                                        pm......
Verse 5
                                x2
|---------------------------------|--------------------------------|
|---------------------------------|--------------------------------|
|---------------------------------|--------------------------------|
|---------------------------------|--------------------------------|
|-2-2-2-2-2-2-2-2-2-1-1-1-0-0-----|-2-2-2-2-1/2-5-2-2-2-2-1-1-0-0--|
|-----------------------------3-3-|--------------------------------|

|-------------------------------|
|-------------------------------|
|-------------------------------|
|-------------------------------|
|-2-2-2-2-1/2-5-2-2-1-1-0-0-----|
|---------------------------3-3-|

Outro Chorus

|-------------------------------------|--------------------10-10-9-8--10-10-8-7--|
|-------------------------------------|------------------------------------------|
|-4-4-4-4-3-3-2------3-3-2-1-3-3-1-0--|-4-4-4-4-3-3-2----------------------------|
|-4-4-4-4-3-3-2-5-2-------------------|-4-4-4-4-3-3-2-5-2------------------------|
|-2-2-2-2-1-1-0-5-2-------------------|-2-2-2-2-1-1-0-5-2------------------------|
|---------------3-0-------------------|---------------3-0------------------------|

|------------------------------------|------------------0-----------------|
|------------------4----4---4---4----|------------------0-----------------|
|-4-4-4-4-3-3-2------3---3---3---3---|-4-4-4-3----4-----0-----------------|
|-4-4-4-4-3-3-2-5--------------------|-4-4-4-3----4-----2---------------2-|
|-2-2-2-2-1-1-0-5--------------------|-2-2-2-1----2-----2---------------2-|
|---------------3--------------------|------------------0---------------0-|

This tab will take a while to play but will sound good when you get it.
------------------------------------------------------------------------------------------
				      Too Drunk to Fuck
------------------------------------------------------------------------------------------

Intro
Guitar One
(Distortion)
---------------------------------------------------------|
---------------------------------------------------------|
---------------------------------------------------------|
---------------------------------------------------------|
---3-X-5-6-5-3------3-5-5-3-----3-X-5-6-5-3------3-5-5-3-|
5--------------5-5-----------5--------------5-5----------|

---------------------------------------------------------|
---------------------------------------------------------|
---------------------------------------------------------|
---------------------------------------------------------|
---3-X-5-6-5-3------3-5-5-3-----3-X-5-6-5-3------3-5-5-3-|
5--------------5-5-----------5--------------5-5----------|

++++
---------------------------------------------------------|
---------------------------------------------------------|
---------------------------------------------------------|
---------------------------------------------------------|
---3-X-5-6-5-3------3-5-5-3-----3-X-5-6-5-3------3-5-5-3-|
5--------------5-5-----------5--------------5-5----------|

---------------------------------------------------------|
---------------------------------------------------------|
---------------------------------------------------------|
---------------------------------------------------------|
---3-X-5-6-5-3------3-5-5-3-----3-X-5-6-5-3------3-5-5-3-|
5--------------5-5-----------5--------------5-5----------|

Verse
PM_______________________________________________________
---------------------------------------------------------|
---------------------------------------------------------|
---------------------------------------------------------|
---------------------------------------------------------|
---3-X-5-6-5-3------3-5-5-3-----3-X-5-6-5-3------3-5-5-3-|
5--------------5-5-----------5--------------5-5----------|

PM_______________________________________________________
---------------------------------------------------------|
---------------------------------------------------------|
---------------------------------------------------------|
---------------------------------------------------------|
---3-X-5-6-5-3------3-5-5-3-----3-X-5-6-5-3------3-5-5-3-|
5--------------5-5-----------5--------------5-5----------|

------------------------------------------------------------------|
------------------------------------------------------------------|
------------------------------------------------------------------|
------------------------------------------------------------------|
3---3-3-3-3-3-3-5---3-5-5---3-2-----3-X-5-6-5-3------3-5-5-3-5-3--|
---------------------------------5---------------5-5--------------|

PM_______________________________________________________
---------------------------------------------------------|
---------------------------------------------------------|
---------------------------------------------------------|
---------------------------------------------------------|
---3-X-5-6-5-3------3-5-5-3-----3-X-5-6-5-3------3-5-5-3-|
5--------------5-5-----------5--------------5-5----------|

PM_______________________________________________________
---------------------------------------------------------|
---------------------------------------------------------|
---------------------------------------------------------|
---------------------------------------------------------|
---3-X-5-6-5-3------3-5-5-3-----3-X-5-6-5-3------3-5-5-3-|
5--------------5-5-----------5--------------5-5----------|

                      ^________(Bend Up 1/2)
------------------------------------------------------------3-3-3--|
------------------------------------------------------------3-3-3--|
------------------------------------------------------------4-4-4--|
------------------------------------------------------------5-5-5--|
3---3-3-3-3-3-3-5---3-5-5---5-3-----3-X-5-6-5-3-------3-5-5-5-5-5--|
---------------------------------5---------------5-5--------3-3-3--|

Chorus
Guitar One
0-------------------0---0-0-0-3-3-3-------------------0---0-0-0-3-3-3-|
0-------------------0---0-0-0-3-3-3-------------------0---0-0-0-3-3-3-|
1-------------------1---1-1-1-4-4-4-------------------1---1-1-1-4-4-4-|
2-------------------2---2-2-2-5-5-5-------------------2---2-2-2-5-5-5-|
2-------------------2---2-2-2-5-5-5-------------------2---2-2-2-5-5-5-|
0-------------------0---0-0-0-3-3-3-------------------0---0-0-0-3-3-3-|

Guitar Two
(Disortion)                                              ~~
--------------------16-----16-16----------------------11\--8-----8----|
--------------------15-----15-15--------------------------------------|
--------------------16-----16-16--------------------------------------|
----------------------------------------------------------------------|
----------------------------------------------------------------------|
----------------------------------------------------------------------|

Guitar One
0-----0-3-3-3-0-----0-3-3-3-0-----1-1-1---2-2-2---8--8--8--8--8----|
0-----0-3-3-3-0-----0-3-3-3-0-----1-1-1---2-2-2---8--8--8--8--8----|
1-----1-4-4-4-1-----1-4-4-4-1-----2-2-2---3-3-3---9--9--9--9--9----|
2-----2-5-5-5-2-----2-6-6-6-2-----3-3-3---4-4-4---10-10-10-10-10---|
2-----2-5-5-5-2-----2-5-5-5-2-----3-3-3---4-4-4---10-10-10-10-10---|
0-----0-3-3-3-0-----0-3-3-3-0-----1-1-1---2-2-2---8--8--8--8--8----|

Guitar Two
 ____________________descrese volume then stop where ___ ends
8-------------------8---------------------------------------------|
------------------------------------------------------------------|
------------------------------------------------------------------|
------------------------------------------------------------------|
------------------------------------------------------------------|
------------------------------------------------------------------|

Go Back To The ++++ in the Intro and repeat the Verse and Chours

End Of Second Chorus
8---8----8--8-----8--8---|
8---8----8--8-----8--8---|
9---9----9--9-----9--9---|
10--10---10-10----10-10--|
10--10---10-10----10-10--|
8---8----8--8-----8--8---|

Interlude/Bridge
8-----8----8--8--|
8-----8----8--8--|
9-----9----9--9--|
10----10---10-10-|
10----10---10-10-|
8-----8----8--8--|

8-----8----8--8--|
8-----8----8--8--|
9-----9----9--9--|
10----10---10-10-|
10----10---10-10-|
8-----8----8--8--|

8-----8----8--8--|
8-----8----8--8--|
9-----9----9--9--|
10----10---10-10-|
10----10---10-10-|
8-----8----8--8--|

8-----8----8--8--|
8-----8----8--8--|
9-----9----9--9--|
10----10---10-10-|
10----10---10-10-|
8-----8----8--8--|

8-----8--10---10-11---11-10-11-10-|
8-----8--10---10-11---11-10-11-10-|
9-----9--11---11-12---12-11-12-11-|
10----10-12---12-13---13-12-13-12-|
10----10-12---12-13---13-12-13-12-|
8-----8--10---10-11---11-10-11-10-|

Guitar One
11-8----8-----8--------8---8--10---10-11---11-10-11-10--8----8---8--8--8--8--|
11-8----8-----8--------8---8--10---10-11---11-10-11-10--8----8---8--8--8--8--|
12-9----9-----9--------9---9--11---11-12---12-11-12-11--9----9---9--9--9--9--|
13-10---10----10-------10--10-12---12-13---13-12-13-12--10---10--10-10-10-10-|
13-10---10----10-------10--10-12---12-13---13-12-13-12--10---10--10-10-10-10-|
11-8----8-----8--------8---8--10---10-11---11-10-11-10--8----8---8--8--8--8--|

Guitar Two
-------------11\8---8----8-------------8--------------------------|
------------------------------------------------------------------|
------------------------------------------------------------------|
------------------------------------------------------------------|
------------------------------------------------------------------|
------------------------------------------------------------------|

Guitar One
-------------------------------------------------------------------------------------------|
-------------------------------------------------------------------------------------------|
-------------------------------------------------------------------------------------------|
-------------------------------------------------------------------------------------------|
-------------------------------------------------------------------------------------------|
5----5--5--3--5---3---5----5--5--3--5---3---5----5--5--3--5---3---5----5--5--5--3--5---3---|

--------------------------------------------------------------------------------------------|
7-----8--8-----5----------------------------------------------------7-----5-----------------|
7-----8--8-----5----------------------------------------------------7-----5-----------------|
7-----8--8-----5----------------------------------------------------7-----5-----------------|
5-----6--6-----3----------------------------------------------------5-----3------------3----|
--------------------5----5--5--3--5---3----5----5--5--3--5---5---3------------3--5--3-----5-|

---------3--3--3--2-2---8---8-----8--X-------------------------------------------------------|
---------3--3--3--2-2---8---8-----8--X-------------------------------------------------------|
---------4--4--4--3-3---9---9-----9--X-------------------------------------------------------|
---------5--5--5--4-4---10--10----10-X-------------------------------------------------------|
---------5--5--5--4-4---10--10----10-X------3-----5-6-5-3-----3-5-5-3-5-3------3-----5-6-5-3-|
------5--3--3--3--2-2---8---8-----8--X--5------X----------5-5--------------5------X----------|

--------------------------------------------------------------------------------------|
--------------------------------------------------------------------------------------|
--------------------------------------------------------------------------------------|
--------------------------------------------------------------------------------------|
----3-5-5-3-5-3------5---7-8-7-5------5-7-7-5-7-5------5---7-8-7-5------5-7-7-5-7-5---|
5-5--------------7-----X----------7-7--------------7-----X----------7-7---------------|

Verse
-------------------------------------------------------------------------------------------|
-------------------------------------------------------------------------------------------|
-----------------------------------------------------------------------------------1/2-----|
-----------------------------------------------------------------------------------/\------|
---5---7-8-7-5-----5-7-7-5-7-5-----5---7-8-7-5-----5-7-7-5-7-5-5--5--5-5-5-5-7-7-5-7-7---7-|
7----X---------7-7--------------7----X---------7-7-----------------------------------------|

----------------------------------------------------------------------------------------------|
----------------------------------------------------------------------------------------------|
----------------------------------------------------------------------------------------------|
----------------------------------------------------------------------------------------------|
---5-X-7-8-7-5-----5-7-7-5-7-5----5-X-7-8-7-5-----5-7-7-5-7-5-----5-X-7-8-7-5-----5-7-7-5-7-5-|
7--------------7-7--------------7-------------7-7--------------7--------------7-7-------------|

-------------------------------------------------------5-5-5-|
-------------------------------------------------------5-5-5-|
---------------------1/2-------------------------------6-6-6-|
---------------------/\--------------------------------7-7-7-|
5--5-5-5-5-5-5-7-7-5-7-7--7-----5-X-7-8-7-5-----5-7----7-7-7-|
-----------------------------7--------------7-7--------5-5-5-|

Chorus
2-------------2---2-2-2-5-5-5-2-------------2---2-2-2-5-5-5-2-------------2-5-5-5-|
2-------------2---2-2-2-5-5-5-3-------------2---2-2-2-5-5-5-2-------------2-5-5-5-|
3-------------3---3-3-3-6-6-6-4-------------3---3-3-3-6-6-6-3-------------3-6-6-6-|
4-------------4---4-4-4-7-7-7-4-------------4---4-4-4-7-7-7-4-------------4-7-7-7-|
4-------------4---4-4-4-7-7-7-4-------------4---4-4-4-7-7-7-4-------------4-7-7-7-|
2-------------2---2-2-2-5-5-5-2-------------2---2-2-2-5-5-5-2-------------2-5-5-5-|

2-------------2-5-5-5-2-------------2------3-3-3----4-4-4----10----10-|
2-------------2-5-5-5-2-------------2------3-3-3----4-4-4----10----10-|
3-------------3-6-6-6-3-------------3------4-4-4----5-5-5----11----11-|
4-------------4-7-7-7-4-------------4------5-5-5----6-6-6----12----12-|
4-------------4-7-7-7-4-------------4------5-5-5----6-6-6----12----12-|
2-------------2-5-5-5-2-------------2------3-3-3----4-4-4----10----10-|

2------3-3-3----4-4-4----10----10-2-----3-3-3----4-4-4----10-10-10-10-10-|
2------3-3-3----4-4-4----10----10-2-----3-3-3----4-4-4----10-10-10-10-10-|
3------4-4-4----5-5-5----11----10-3-----4-4-4----5-5-5----11-11-11-11-11-|
4------5-5-5----6-6-6----12----10-4-----5-5-5----6-6-6----12-12-12-12-12-|
4------5-5-5----6-6-6----12----10-4-----5-5-5----6-6-6----12-12-12-12-12-|
2------3-3-3----4-4-4----10----10-2-----3-3-3----4-4-4----10-10-10-10-10-|

Outro
10-10-10--8--8--8--8--8-10-10-10/13----10-12-|
10-10-10--8--8--8--8--8-10-10-10/13----10-12-|
11-11-11--9--9--9--9--9-11-11-11/14----11-13-|
12-12-12-10-10-10-10-10-12-12-12/15----12-14-|
12-12-12-10-10-10-10-10-12-12-12/15----12-14-|
10-10-10--8--8--8--8--8-10-10-10/13----10-12-|

10-10-10--8--8--8--8--8-10-10-10/13----10-12-|
10-10-10--8--8--8--8--8-10-10-10/13----10-12-|
11-11-11--9--9--9--9--9-11-11-11/14----11-13-|
12-12-12-10-10-10-10-10-12-12-12/15----12-14-|
12-12-12-10-10-10-10-10-12-12-12/15----12-14-|
10-10-10--8--8--8--8--8-10-10-10/13----10-12-|

10-10-10--8--8--8--8--8-10-10-10/13----10-12-|
10-10-10--8--8--8--8--8-10-10-10/13----10-12-|
11-11-11--9--9--9--9--9-11-11-11/14----11-13-|
12-12-12-10-10-10-10-10-12-12-12/15----12-14-|
12-12-12-10-10-10-10-10-12-12-12/15----12-14-|
10-10-10--8--8--8--8--8-10-10-10/13----10-12-|

10--------------------10--------------------10--------------------|
10--------------------10--------------------10--------------------|
11--------------------11--------------------11--------------------|
12--------------------12--------------------12--------------------|
12--------------------12--------------------12--------------------|
10--------------------10--------------------10--------------------|

thats it! enjoy

------------------------------------------------------------------------------------------
				    Californis Uber Alles
----------------------------------------------------|
e:--------------------------------------------------|
B:--------------------------------------------------|
G:-----------------x2------------------------|x3.5--|
D:-----------------|9-99-9-99/101010101012109-------|
A:-7-8-10-87-8-10-8|7-77-7-77/8-88-8-88/10\87-------|
E:-----------------|pmpm--pm--pmpm-pmpm-------------|

e:8--9--8||--------x3---------------|
B:8--9--8||---------|---------------|
G:9--10-9||---------|---------------|
D:10-11-10|9-1012109|7--9999999-77--|
A:10-11-10|7-8-10-87|55-7777777-555-|
E:8--9--8||---------|-3-----------3-|

CHORUS:

e:77-77-77/8\--|x2 each time chorus comes around
B:77-77-77/8\--|
G:99-99-99/10\-|
D:99-99-99/10\-|
A:77-77-77/8\--|
E:-------------|

bridge(after each  chorus and played after the second one)

e:-----------------|x2(note:when bridge comes around by itself play
B:-----------------|   without power chors until he shouts die! then
G:-----------------|   repeat chorus once.)
D:9999999-77-------|
A:7777777-5588-55|
E:----------66-33|

finishing riff:

e-------------------|x3|----| see very simple listen to the album,
B-------------------||||----| record, cd, cassette whatever u have
G---------------7---||||----| to find out the exact rythem!
D9-9999-9997-77757-9||||9999|
A7-7777-7775-555-5-7||||7777|
E-------------------||||----|

------------------------------------------------------------------------------------------
				    The Man with the Dogs
------------------------------------------------------------------------------------------

intro and verse 1

e-|----------------------------------|
B-|----------------------------------|
G-|----------------------------------|
D-|--8-8-8--6-6--3-3-3--8-8-8--6--3--|
A-|--8-8-8--6-6--3-3-3--8-8-8--6--3--|
E-|--6-6-6--4-4--1-1-1--6-6-6--4--1--|

high part in verse 1...

e-|--------------------------------------------------------|
B-|--------------------------------------------------------|
G-|-8-8-8--6-6-3-3-3-8-8-8-6-3--8-8-8-6-6-3-3-3--8-8-8-8-8-|
D-|-8-8-8--6-6-3-3-3-8-8-8-6-3--8-8-8-6-6-3-3-3--8-8-8-8-8-|
A-|-6-6-6--4-4-1-1-1-6-6-6-4-1--6-6-6-4-4-1-1-1--6-6-6-6-6-|
E-|--------------------------------------------------------|

chorus(i guess)
e-|--13-13-13-13-13-13-13-13--11-11-11-11-11-11-11-11--|
B-|----------------------------------------------------|repeat a bit


bridge
e-|-------------------------------------------|---------------------|
B-|-------------------------------------------|---------------------|
G-|-------------------------------------------|---------------------|
D-|-10-10-10--9-10-10-10-10--8-8-8-7-8-8-8-8--|-10-10-10-10--8-8-8--|
A-|-10-10-10--9-10-10-10-10--8-8-8-7-8-8-8-8--|-10-10-10-10--8-8-8--|
E-|--8--8--8--7--8--8--8--8--6-6-6-5-6-6-6-6--|--8--8--8--8--6-6-6--|

e-|--------------------------------------------------|
B-|--------------------------------------------------|
G-|--------------------------------------------------|
D-|-10-10-10-10-8-8----------------------------------|
A-|-10-10-10-10-8-8----------------------------------|
E-|--8--8--8--8-6-6----------------------------------|


the verse that is played higher...(I think its the third verse...but I"m
too lazy to get out the cd and listen to it to find out)
just play this verse two frets higher than the first verse and do the
same with the chorus

the second bridge...or the outro however you want to look at it

e-|------------------------------------------------|
B-|------------------------------------------------|
G-|------------------------------------------------|
D-|-12-12-12-11-11-12-12--10-10-10-9-9-10-10-------|
A-|------------------------------------------------|
E-|------------------------------------------------|


------------------------------------------------------------------------------------------
					   Insight
------------------------------------------------------------------------------------------

Tabbed by: Dumb Kids
Album: Give Me Convenience Or Give Me Death
Tuning: Standard

Intro:
e|------------------------|
B|------------------------|x2
G|------------------------|
D|------------------------|
A|----11-33-4-3-4-3-1-----|
E|-33-----------------3-1-|

e|--------------------------|
B|-12-10-9-8-7--12-10-9-8-7-|
G|-12-10-9-8-7--12-10-9-8-7-|
D|-12-10-9-8-7--12-10-9-8-7-|
A|-10--8-7-6-5--10--8-7-6-5-|
E|--------------------------|

Riff 1:
e|-------33-------333-|
B|-5-3---33-------333-|
G|-5-3-4-44-2-2-4-444-|
D|-5-3-5-55-3-3-5-555-|
A|-3-1-5-55-3-3-5-555-|
E|-----3-33-1-1-3-333-|

Verse:
e|-------33-------333--------33---------------------------------|
B|-5-3---33-------333--5-3---33-------55-6---------55-6---------|
G|-5-3-4-44-2-2-4-444--5-3-4-44-2-2-4-55-6---------55-6---------|x2
D|-5-3-5-55-3-3-5-555--5-3-5-55-3-3-5-55-6-(pause)-55-6-(pause)-|
A|-3-1-5-55-3-3-5-555--3-1-5-55-3-3-5-33-4---------33-4---------|
E|-----3-33-1-1-3-333------3-33-1-1-3---------------------------|

Riff 2:
e|--------55-------555---------55----------|
B|-77-5---55-------555--77-5---55----------|
G|-77-5-6-66-444-6-666--77-5-6-66-444-6-66-|
D|-77-5-7-77-555-7-777--77-5-7-77-555-7-77-|
A|-55-3-7-77-555-7-777--55-3-7-77-555-7-77-|
E|------5-55-333-5-555-------5-55-333-5-55-|

Chorus:
e|--------------------55555555---------------------|
B|-7*---6-5*---7*---5-55555555--7*---6-5*----------|
G|-7*---6-5*---7*---5-66666666--7*---6-5*---8-7*---|
D|-7*---6-5*---7*---5-77777777--7*---6-5*---9-8*---|
A|-5*---4-3*---5*---3-77777777--5*---4-3*---9-8*---|
E|--------------------55555555--------------7-6*---|

Outro:
e|-------------5-55-------------------|
B|-7-5-7-5-7---5-55--7-5-7-5-10-9-8-7-|
G|-7-5-7-5-7-6-6-66--7-5-7-5-10-9-8-7-|x2
D|-7-5-7-5-7-7-7-77--7-5-7-5-10-9-8-7-|
A|-5-3-5-3-5-7-7-77--5-3-5-3--8-7-6-5-|
E|-----------5-5-55-------------------|

e|------------------|
B|-----------9-9-99-|
G|-6-4-6-4-6-9-9-99-|x3
D|-7-5-7-5-7-9-9-99-|
A|-7-5-7-5-7-7-7-77-|
E|-5-3-5-3-5--------|

e|-----------|
B|-----------|
G|-----------|
D|-----5---5-|
A|---5---5---|
E|-7---------|

Key:
| *  hold note |


Order:

Intro
Riff 1
Verse
Riff 1 x2
Riff2
Chorus
Intro
Verse
Riff 1 x2
Riff 2
Chorus
Outro
Ending
------------------------------------------------------------------------------------------
					Life Sentence
------------------------------------------------------------------------------------------

Can't Find E-mail me at Rbm90120@aol.com if you have it

------------------------------------------------------------------------------------------
				    A Child and His Lawnmower
------------------------------------------------------------------------------------------
intro
e-|-------------------------------------------------------------------|
B-|--8-8-8-3-3-3--------------8-8-8-3-3-3-------------8-8-8-3-3-3-----|
G-|--7-7-7-2-2-2-5-5-5-7-7-7--7-7-7-2-2-2-5-5-5-7-7-7-7-7-7-2-2-2--4--|
D-|--5-5-5-0-0-0-5-5-5-7-7-7--5-5-5-0-0-0-5-5-5-7-7-7-5-5-5-0-0-0--4--|
A-|--------------3-3-3-5-5-5--------------3-3-3-5-5-5--------------2--|
E-|-------------------------------------------------------------------|


verse...
e-|-----------------------------|
b-|-5-5-7-7-5-5-7-7-5-5-7-7-7-7-|
G-|-6-6-8-8-6-6-8-8-6-6-8-8-7-7-|
D-|-7-7-9-9-7-7-9-9-7-7-9-9-7-7-| repeat this a bit...
A-|-7-7-9-9-7-7-9-9-7-7-9-9-----|
E-|-----------------------------|

chorus...

e-|-----------------------------------|
B-|-5-5-7-7-5-5-7-7-3-3-5-5-3-3-5-5---|
G-|-6-6-7-7-6-6-7-7-4-4-5-5-4-4-5-5---|
D-|-7-7-7-7-7-7-7-7-5-5-5-5-5-5-5-5---|
A-|-7-7-----7-7-----6-6-----6-6-------|
E-|-----------------------------------|

------------------------------------------------------------------------------------------
					Holiday in Cambodia
------------------------------------------------------------------------------------------

By The Dead Kennedys   (Composed by Jello Biafra)

[ Tab from: http://www.guitartabs.cc/tabs/d/dead_kennedys/give_me_convience_or_give_me_death_tab.html ]
A fantastic song.....from my formative years [ B-) ] .....just get the
evil power of the opening riff right and you're there!

This is an alternative tab for this song to the one already here.

I've tabbed it for the different riffs.....individually spelt out first,
then the way I play them together with the words.

(P.S. I can't take credit for working it out.....Raymond Amour did that
for me)


Bass Riff
||-----------------------------------------------------------|
||-----------------------------------------------------------|
||*------------------------------------------------------*---|
||*------------------------------------------------------*---|
||---3---3--3--2--2--2--1--1--1--0--0--0--0--0--0--0--0------|(
||-----------------------------------------------------------|


Rakes
((17----\---8\---||
((---------------||
((---------------||
((---------------||
((---------------||
((---------------||


"A" Octaves
||-----------------------------------||
||-----------------------------------||
||---14--14--14--14--14--14--14--14--||
||-----------------------------------||
||---12--12--12--12--12--12--12--12--||
||-----------------------------------||


Riff 1
------------------------------------------------------------------------|
------------------------------------------------------------------------|
-5-----9--8-----5--5--5--4--11--10-----14--14--5-----9--8-----5--5--5---|
----0---------------------------------------------0---------------------|
-3-----7--6-----3--3--3--2--9---9------12--12--3-----7--6-----3--3--3---|
------------------------------------------------------------------------|

---------------|!
---------------|((
4--11--10------|((
---------------|((
2--9----9------|((
---------------|((


Arpegiated Chords1
-----------7-----------------10------------7----------------10----------|
--------7-----7----------10------10-----------7-----------------10------|
-----7---------------11-----------------7--------7------11----------10--|
--9--------------12------------------9--------------12------------------|
------------------------------------------------------------------------|
------------------------------------------------------------------------|

----------7---------|
-------7-----7------|
--------------------|
---9------------7---|
--------------------|
--------------------|


Riff 2
------------------------------------------------------------------------|
------------------------------------------------------------------------|
-7--7--7--7--7--7--7--7--5--5--5--5--5--5--5--5--------------5--5--5--5-|
-------------------------------------------------5--5--5--5-------------|
-5--5--5--5--5--5--5--5--3--3--3--3--3--3--3--3--------------3--3--3--3-|
-------------------------------------------------3--3--3--3-------------|

---------------------||
---------------------||
---------------------||
7--7--7--7--7--7--7--||
---------------------||
3--3--3--3--3--3--3--||


Arpegiated Chords 2
-------------5--5--------------------7--7------------------------8------|
-------6--6--------6--6--------8--8--------8--8----------10--10---------|
-7--7--------------------9--9--------------------10--10-----------------|
------------------------------------------------------------------------|
------------------------------------------------------------------------|
------------------------------------------------------------------------|

8----------------------7--7--------||
---10--10--------8--8--------8--8--||
-----------9--9--------------------||
-----------------------------------||
-----------------------------------||
-----------------------------------||


Chorus
----------------------------------------------13--||
----------------------------------------------13--||
-2--5--7--5--2--5--7--5--2--5--7--5-----------14--||
-0--5--7--5--0--5--7--5--0--5--7--5--7--5--3--15--||
-0--3--5--3--0--3--5--3--0--3--5--3--7--5--3------||
-------------------------------------5--3--1------||

Solo
-17--17--18--18--19--19--18--\||
------------------------------||
------------------------------||
------------------------------||
------------------------------||
------------------------------||


Bridge 1
||------------------||
||------------------||
||*---------9--10--*||
||*--10--9---------*||
||----------7--8----||
||---8---7----------||

Bridge 2
------------------------------------------------------------------------|
------------------------------------------------------------------------|
7--7--7--7--7--7--7--7--5--5--5--5--5--5--5--5--------------5--5--5-----|
------------------------------------------------5--5--5--5--------------|
------------------------------------------------------------------------|
------------------------------------------------------------------------|

---------------------------|
---------------------------|
5--------------------------|
---7--7--7--7--7--7--7--7--|
---------------------------|
---------------------------|

Bridge 3
||----------------------------------------------------------------------|
||----------------------------------------------------------------------|
||*---------------------------------------------------------------------|
||*-----2-----2-----2-----2-----5-----5-----5-----5-----7-----7---------|
||---0-----0-----0-----0-----3-----3-----3-----3-----5-----5-----5------|
||----------------------------------------------------------------------|

--------------------------------------||
--------------------------------------||
-------------------------------------*||
7-----7-----10-----10-----10-----10--*||
---5-----8------8------8------8-------||
--------------------------------------||


"Pol....Pot....Pol....Pot..
--------------------------|
--------------------------|
-2-----5-----7-----10-----|
-2-----5-----7-----10-----|
-0-----3-----5-----8------|
--------------------------|


End
||---------|
||---------|
||-------2-|
||-------2-|
||---3-\-0-|
||---------|

(Bass Riff)  x2

(Rakes)

(A Octaves)  x8

(Riff 1)

(Bass Riff)

(Bass Riff - muted)  x4
So you been to school for a year or two
And you know you've seen it all
In daddy's car thinkin' you'll go far
Back east your type don't crawl

(Arpegiated Chords 1)  x2
Play ethnicky jazz to parade your snazz
On your five grand stereo
Braggin that you know how the niggers feel cold
And the slums got so much soul

(Riff 2)  x2
It's time to taste what you most fear
Right Guard will not help you here

(Arpegiated Chords 2)  x2
Brace yourself, my dear
Brace yourself, my dear

(Chorus)
It's a holiday in Cambodia
It's tough kid but it's life
It's a holiday in Cambodia
Don't forget to pack a wife


(Riff 1)

(Bass Riff) x2


(Bass Riff - muted)   x4
You're a Star-Belly Sneech you suck like a leech
You want everyone to act like you
Kiss ass while you bitch so you can get rich
But your boss gets richer off you

(Arpegiated Chords 1)   x2
Well you'll work harder with a gun in your back
For a bowl of rice a day
Slave for soldiers till you starve
Then your head is skewered on a stake

(Riff 2)   x2
Now you can go where the people are one
Now you can go where they get things done

(Arpegiated Chords 2)    x2
What you need, my son
What you need, my son


(Chorus)
It's a holiday in Cambodia
Where people dress in black
A holiday in Cambodia
Where you'll kiss ass or crack


(Solo)

(Riff 1)

(Bridge)
Pol Pot, Pol Pot, Pol Pot, Pol Pot, Pol Pot, Pol Pot, ...


(Chorus)
It's a holiday in Cambodia
Where you'll do what your told
A holiday in Cambodia
Where the slums got so much soul

(End)
Pol Pot


Enjoy!

Cheers!
Toby Branfoot               ######   toby.branfoot@almac.co.uk   ######
---
 * RM 1.3 U0414 * Why are we adding to upload/download time with these things?

Here you go Marc, I don't directly connect to the net so if you want
you can post this for other DK fans.
                                              Dennis Kaptain
                                              power!igor!djkap
                                              AT&T Bell Laboratories
                                              Mesquite, Texas

Holiday in Cambodia  by Dead Kennedys

    intro
E-------------------------------------------------------------------------|
B-------------------------------------------------------------------------|
G-------------------------------------------------------------------------|
D--------------------------7-7-7------------------------------------------|
A----------7-6---------9-8---------7-6---------9-8------------------------|
E--8-8-8-5-----8-8-8-5-----------5-----8-8-8-5----------------------------|

    <-       repeat   4x?   -> |  <-               riff 1------------------|               ->
E------------------------------|-------------------------------------------|
B------------------------------|-------------------------------------------|
G------------------------------|-------------------------------------------|
D------------------------------|-------------------------------------------|
A------------------------------|-------------------------------------------|
E------8-8-8-7---6---5-5-5-----|----------8-8-8---7------6-----5-5-5-------|
                               |   so you been to school for a year or two


riff1
So you been to school for a year or two

And you know you've seen it all

In daddy's car thinkin' you'll go far

Back east your type don't crawl

     G                D                          <- switch to chords
Play ethnicky jazz to parade your snazz
        G               D
On your five grand stereo
G                             D
Braggin that you know how the niggers feel cold
        G                 D
And the slums got so much soul
     D       C          G   C    A
It's time to taste what you most fear
D           C        G    C   A
Right Guard will not help you here
A         b        C   b
Brace yourself, my dear
A         b        C   D
Brace yourself, my dear

       A          C  D
It's a holiday in Cambodia
C    A             C    D
It's tough kid but it's life
C      A          C  D
It's a holiday in Cambodia
C     A              G F           riff1
Don't forget to pack a wife


riff1
You're a Star-Belly Sneech you suck like a leech

You want everyone to act like you

Kiss ass while you bitch so you can get rich

But your boss gets richer off you

     G                         D
Well you'll work harder with a gun in your back
      G              D
For a bowl of rice a day
G                  D
Slave for soldiers till you starve
          G                     D
Then your head is skewered on a stake
D           C            G      C   A
Now you can go where the people are one
D           C             G   C      A
Now you can go where they get things done
A        b        C   b
What you need, my son
A        b        C   D
What you need, my son


       A       C     D
It's a holiday in Cambodia
C     A            C  D
Where people dress in black
C A          C  D
A holiday in Cambodia
C     A               G  F         riff1
Where you'll kiss ass or crack


A   C    D   F    A   C    D   F    A   C    D   F
Pol Pot, Pol Pot, Pol Pot, Pol Pot, Pol Pot, Pol Pot, ...


            < THE LEAD GOES HERE,...     PERHAPS ANOTHER DAY >

       A          C  D
It's a holiday in Cambodia
C     A              C    D
Where you'll do what your told
C A          C  D
A holiday in Cambodia
C         A            G    F       C    A
Where the slums got so much soul    Pol  Pot

       A          b          C          D          F          G
     EADGBE     EADGBE     EADGBE     EADGBE     EADGBE     EADGBE
     ||||||     ||||||     ||||||     ||||||     ||||||     ||||||
 5th 111111 7th 111111 3rd 111111 5th 111111 1st 111111 3rd 111111
     |||2||     |||2||     ||||||     ||||||     |||2||     |||2||
     |34|||     |34|||     ||333|     ||333|     |34|||     |34|||
     ||||||     ||||||     ||||||     ||||||     ||||||     ||||||
     ||||||     ||||||     ||||||     ||||||     ||||||     ||||||


------------------------------------------------------------------------------------------
					I Fought the Law
------------------------------------------------------------------------------------------
!!!!KINDA HARD FINGERING AHEAD!!!!!
INTRO

E-3---3----3-3-3-3-0-0-2-2-2-3-3-3-3-2-0-0-3--|
B-0---0----0-0-0-0-1-1-3-3-3-0-0-0-0-3-1-2-0--|
G-0---0----0-0-0-0-0-0-2-2-2-0-0-0-0-2-0-2-0--|
D-0---0----0-0-0-0-2-2-0-0-0-0-0-0-0-0-2-2-0--|
A-2---2----2-2-2-2-3-3-0-0-0-2-2-2-2-0-3-0-2--|
E-3---3----3-3-3-3-0-0-0-0-0-3-3-3-3-0-0-0-3--|
VERSE

E-3-3-3-3-0-0-2-2-2--|
B-0-0-0-0-1-1-3-3-3--|
G-0-0-0-0-0-0-2-2-2--|
D-0-0-0-0-2-2-0-0-0--|
A-2-2-2-2-3-3-0-0-0--|
E-3-3-3-3-0-0-0-0-0--|
CHORUS

E-3-3-3-3-0-0-2-2-2-3-3-3-3-2-2-2-3--|
B-0-0-0-0-1-1-3-3-3-0-0-0-0-3-3-3-0--|
G-0-0-0-0-0-0-2-2-2-0-0-0-0-2-2-2-0--|
D-0-0-0-0-2-2-0-0-0-0-0-0-0-0-0-0-0--|
A-2-2-2-2-3-3-0-0-0-2-2-2-2-0-0-0-2--|
E-3-3-3-3-0-0-0-0-0-3-3-3-3-0-0-0-3--|
FILL IN

E-3-3-3-0-0-2-2-2-0-0-3-2-0-0-3--|
B-0-0-0-1-1-3-3-3-1-1-0-3-1-2-0--|
G-0-0-0-0-0-2-2-2-0-0-0-2-0-2-0--|
D-0-0-0-2-2-0-0-0-2-2-0-0-2-2-0--|
A-2-2-2-3-3-0-0-0-3-3-2-0-3-0-2--|
E-3-3-3-0-0-0-0-0-0-0-3-0-0-0-3--|
THE LAW DONT MEAN.....REAPEAT TIL CHORUS THIS IS A BRIDGE
E-0-0-0-0-3-3-3-3--|
B-1-1-1-1-0-0-0-0--|
G-0-0-0-0-0-0-0-0--|
D-2-2-2-2-0-0-0-0--|
A-3-3-3-3-2-2-2-2--|
E-0-0-0-0-3-3-3-3--|


------------------------------------------------------------------------------------------
				      Saturday Night Holocaust
------------------------------------------------------------------------------------------

			Can't Find E-mail Me @ Rbm90120@aol.com if you have it.

------------------------------------------------------------------------------------------
					Pull My Strings
------------------------------------------------------------------------------------------
Verse

Part 1 (play this alot
play palm muted sometimes) Part 2 (when he says i wanna be a prefab superstar)
e|-------------------|-------------------| Part 3----------------------------|
B|-----7-5-------7-5-|-------------------|-----9-7-----9-7-----9-7-----------|
G|-----7-5-------7-5-|-------------------|-----9-7-6-8-9-7-6-8-9-7-6-8-4~----|
D|-----7-5-------7-5-|-----___-------___-|-----9-7-7-9-9-7-7-9-9-7-7-9-5~----|
A|-----5-3-------5-3-|-___-5-3-_____-5-3-|-----7-5-7-9-7-5-7-9-7-5-7-9-5~----|
E|-3/5-----3/5-5-----|-3/5-----3/5-5-----|-3/7-----5-7-----5-7-----5-7-3~----|

Then play part 1 until he says (I'll make my music) then play Part 2
The Part 3

Part 4 (My Payola!)
e|--------------------|------------------------------------------------------|
B|--------------------|-5-3-5-3----------------------------------------------|
G|--------------------|-5-3-5-3----------------------------------------------|
D|----55---5---5---5--|-5-3-5-3----------------------------------------------|
A|--------------------|-3-1-3-1----------------------------------------------|
E|-33----3---3---3----|------------------------------------------------------|

Then play verse things again (figure out the order!, its not hard!)

Reggae part! Sell my soul part!
e|-3-7-7--8-|-then---|-------------------------------------------------------|
B|-3-7-8--8-|-Part 3-|-----8-------------------------------------------------|
G|-4-8-9--9-|--------|-4-8-9--9----------------------------------------------|
D|-5-9-9-10-|--------|-5-9-9-10----------------------------------------------|
A|-5-9-7-10-|--------|-5-9-7-10----------------------------------------------|
E|-3-7-7--8-|--------|-3-7----8----------------------------------------------|

Solo
e|---------------------------------------------------------------------------|
B|------------------------------------8--------------------------------------|
G|---------------------------777-999-9-9-12-14-14b-14b-14b-14hb-12----12--12-|
D|-7b-7b-7b-7hb-7-5---5--7-9---------------------------------------14---14---|
A|------------------7--7-----------------------------------------------------|
E|---------------------------------------------------------------------------|

e|--------------------------------------------------15b-15b-15b-15hb-12------12-|
B|--------------------------------------1717-----17--------------------151215---|
G|-----------------------------------16-----16-16-------------------------------|
D|-14-12---------------------1212/14--------------------------------------------|
A|-------14-13-12-10------------------------------------------------------------|
E|-------------------10-1212----------------------------------------------------|

e|----------------16-------------------------------16-----16----16----16-18hb|
B|-14hb-15b-15b-17-----16-18-16-18----------16-16b----16b----18----18--------|
G|------------------16-------------1715--------------------------------------|
D|-------------------------------------1815----------------------------------|
A|---------------------------------------------------------------------------|
E|---------------------------------------------------------------------------|

e|-18hb-18hb-|-1916---|----16-18-18hb-18hb-18hb-212121-|
B|-----------|-----18-|-18-----------------------------|
G|-----------|--------|--------------------------------|
D|-----------|-4or5X--|--------------------------------|
A|-----------|--------|--------------------------------|
E|-----------|-FAST---|--------------------------------|

e--------------------------------|
b-1715----------------15--1517---|
g-----1614-------14-16--16-------|
d---------171417-----------------|
a--------------------------------|
e--------------------------------|

e|-15-------|--------|-----------------------------------------------------------|
B|---17-----|--------|----------------17----17----1515hb15b---17--------17--1719-|
G|-----16---|-161514-|-16-14-------16----16----16-----------16--16171616--16-----|
D|-------14-|--------|-------17-14-----------------------------------------------|
A|----------|--alot -|-----------------------------------------------------------|
E|----------|--FAST--|-----------------------------------------------------------|

Then Sell my soul part, then My Payola!
there you go now i hope you guys will try harder next time

------------------------------------------------------------------------------------------
				          Short Songs
------------------------------------------------------------------------------------------
EVERYTHING

E-----------------------------------------------------------------------]
B-----------------------------------------------------------------------]
G----------5-5--5-5----------5-5--5-5----------5-5--5-5---------6-6-----]
D-7-7-6-6--5-5--5-5-7-7-6-6--5-5--5-5-7-7-6-6--5-5--5-5-7-7-6-6-6-6-6-6-]
A-7-7-6-6--3-3--3-3-7-7-6-6--3-3--3-3-7-7-6-6--3-3--3-3-7-7-6-6-4-4-6-6-]
E-5-5-4-4-----------5-5-4-4-----------5-5-4-4-----------5-5-4-4-----4-4-]

REAPET TIL END
  WHAT A GREAT BEAT SERIOUSLY PRETTY COOL...PERFECT TAB

------------------------------------------------------------------------------------------
					  Straight A's
------------------------------------------------------------------------------------------


intro x4               verse             fill x2
e-|--------------|----------------------|------------------------------------|
B-|--------------|----------------------|------------------------------------|
G-|----------6---|--7-------7-------9---|--6---8-------6---8-------6---9-----|
D-|--5---7---6---|--7---7---7---7---9---|--6---8---7---6---8---7---6---9---8-|
A-|--5---7---4---|--5---7---5---7---7---|--4---6---7---4---6---7---4---7---8-|
E-|--3---5-------|------5-------5-------|----------5-----------5-----------6-|


2nd Verse (high part) x2       chorus x4
e-|--------------------------|---------------|
B-|--------------------------|---------------|
G-|--10-------10--------12---|------------6--|
D-|--10---10--10---10---12---|---5---7----6--|
A-|---8---10---8---10---10---|---5---7----4--|
E-|--------8--------8--------|---3---5-------|
---------------------------------------------|
				Kinky Sex Makes the World Go Round
------------------------------------------------------------------------------------------

			Can't Find E-mail Me @ Rbm90120@aol.com if you have it.

------------------------------------------------------------------------------------------
					   The Prey
------------------------------------------------------------------------------------------

			Can't Find E-mail Me @ Rbm90120@aol.com if you have it.

------------------------------------------------------------------------------------------
				   Night of the Living Rednecks
------------------------------------------------------------------------------------------

			Can't Find E-mail Me @ Rbm90120@aol.com if you have it.

------------------------------------------------------------------------------------------
				    Buzzbomb From Pasadena
------------------------------------------------------------------------------------------
The guitar in this song is the same thing as in Buzzbomb just the singing(Granny Voice) is different so
I will just put the original Buzzbomb.

By: Rambozo

e-|-----------------------------------------------------------------|
B-|-----------------------------------------------------------------|
G-|-----------------------------------------------------------------|
D-|-----------------------------------------------------------------|
A-|-5-5-8-8-5-5-8-8-5-5-8-8-5-5-8-8-5-5-8-8-5-5-8-8-5-5-8-8-5-5-8-8-|
E-|-3-3-6-6-3-3-6-6-3-3-6-6-3-3-6-6-3-3-6-6-3-3-6-6-3-3-6-6-3-3-6-6-|

e-|-----------------------------------------------------------------|
B-|-----------------------------------------------------------------|
G-|-----------------------------------------------------------------|
D-|-----------------------------------------------------------------|
A-|-----------------------------------------------------------------|
E-|-4-4-7-7-4-4-7-7-4-4-7-7-4-4-7-7-3-3-6-6-3-3-6-6-3-3-6-6-3-3-6-6-|

e-|-----------------------------------------------------------------|
B-|-----------------------------------------------------------------|
G-|-----------------------------------------------------------------|
D-|-----------------------------------------------------------------|
A-|-----------------------------------------------------------------|
E-|-4-4-7-7-4-4-7-7-4-4-7-7-4-4-7-7-3-3-6-6-3-3-6-6-3-3-6-6-3-3-6-6-|

e-|-----------------------------------------------------------------|
B-|-----------------------------------------------------------------|
G-|-----------------------------------------------------------------|
D-|-----------------------------------------------------------------|
A-|-9-9-9-9-9-9-9-9-8-8-8-8-8-8-8-8-9-9-9-9-9-9-9-9-8-8-8-8-8-8-8-8-|
E-|-7-7-7-7-7-7-7-7-6-6-6-6-6-6-6-6-7-7-7-7-7-7-7-7-6-6-6-6-6-6-6-6-|

e-|-----------------------------------------------------------------|
B-|-----------------------------------------------------------------|
G-|-----------------------------------------------------------------|
D-|-----------------------------------------------------------------|
A-|-----------------------------------------------------------------|
E-|-4-4-7-7-4-4-7-7-4-4-7-7-4-4-7-7-3-3-6-6-3-3-6-6-3-3-6-6-3-3-6-6-|

e-|-----------------------------------------------------------------|
B-|-----------------------------------------------------------------|
G-|-----------------------------------------------------------------|
D-|-----------------------------------------------------------------|
A-|-----------------------------------------------------------------|
E-|-4-4-7-7-4-4-7-7-4-4-7-7-4-4-7-7-3-3-6-6-3-3-6-6-3-3-6-6-3-3-6-6-|

e-|-----------------------------------------------------------------|
B-|-----------------------------------------------------------------|
G-|-----------------------------------------------------------------|
D-|-----------------------------------------------------------------|
A-|-9-9-9-9-9-9-9-9-8-8-8-8-8-8-8-8-9-9-9-9-9-9-9-9-8-8-8-8-8-8-8-8-|
E-|-7-7-7-7-7-7-7-7-6-6-6-6-6-6-6-6-7-7-7-7-7-7-7-7-6-6-6-6-6-6-6-6-|

e-|-----------------------------------------------------------------|
B-|-----------------------------------------------------------------|
G-|-----------------------------------------------------------------|
D-|-7-7-7-7-7-7-7-7-5-5-5-5-5-5-5-5-4-4-4-4-4-4-4-4-3-3-3-3-3-3-3-3-|
A-|-5-5-5-5-5-5-5-5-3-3-3-3-3-3-3-3-2-2-2-2-2-2-2-2-1-1-1-1-1-1-1-1-|
E-|-----------------------------------------------------------------|

e-|---------------------------------|
B-|---------------------------------|
G-|---------------------------------|
D-|---------------------------------|
A-|-5-5-8-8-5-5-8-8-5-5-8-8-5-5-8-8-|
E-|-3-3-6-6-3-3-6-6-3-3-6-6-3-3-6-6-|

e-|-----------------------------------------------------------------|
B-|-----------------------------------------------------------------|
G-|-----------------------------------------------------------------|
D-|-----------------------------------------------------------------|
A-|-----------------------------------------------------------------|
E-|-4-4-7-7-4-4-7-7-4-4-7-7-4-4-7-7-3-3-6-6-3-3-6-6-3-3-6-6-3-3-6-6-|

e-|-----------------------------------------------------------------|
B-|-----------------------------------------------------------------|
G-|-----------------------------------------------------------------|
D-|-----------------------------------------------------------------|
A-|-----------------------------------------------------------------|
E-|-4-4-7-7-4-4-7-7-4-4-7-7-4-4-7-7-3-3-6-6-3-3-6-6-3-3-6-6-3-3-6-6-|

e-|-----------------------------------------------------------------|
B-|-----------------------------------------------------------------|
G-|-----------------------------------------------------------------|
D-|-----------------------------------------------------------------|
A-|-9-9-9-9-9-9-9-9-8-8-8-8-8-8-8-8-9-9-9-9-9-9-9-9-8-8-8-8-8-8-8-8-|
E-|-7-7-7-7-7-7-7-7-6-6-6-6-6-6-6-6-7-7-7-7-7-7-7-7-6-6-6-6-6-6-6-6-|

e-|-----------------------------------------------------------------|
B-|-----------------------------------------------------------------|
G-|-----------------------------------------------------------------|
D-|-7-7-7-7-7-7-7-7-5-5-5-5-5-5-5-5-4-4-4-4-4-4-4-4-3-3-3-3-3-3-3-3-|
A-|-5-5-5-5-5-5-5-5-3-3-3-3-3-3-3-3-2-2-2-2-2-2-2-2-1-1-1-1-1-1-1-1-|
E-|-----------------------------------------------------------------|

e-|---------------------------------|
B-|---------------------------------|
G-|---------------------------------|
D-|---------------------------------|
A-|-5-5-8-8-5-5-8-8-5-5-8-8-5-5-8-8-|
E-|-3-3-6-6-3-3-6-6-3-3-6-6-3-3-6-6-|

e-|------------------------------------------------------------------------|
B-|-12-12-12-12-12-12-10---------------------------------------------------|
G-|----------------------12-11-11-11-11-11-11-11-9-11-12-12-12-12-12-12-14-|
D-|------------------------------------------------------------------------|
A-|------------------------------------------------------------------------|
E-|------------------------------------------------------------------------|

e-|------------------------------------------------------------------------|
B-|-------------------------12-12-12-12-12-12-10---------------------------|
G-|-11-11-11-11-11-11-11-11----------------------12-11-11-11-11-11-11-11-9-|
D-|------------------------------------------------------------------------|
A-|------------------------------------------------------------------------|
E-|------------------------------------------------------------------------|

e-|-------------------------------|
B-|-------------------------13-12-|
G-|-11-12-12-12-12-12-12-12-------|
D-|-------------------------------|
A-|-------------------------------|
E-|-------------------------------|

e-|-----------------------------------------------------------------|
B-|-----------------------------------------------------------------|
G-|-----------------------------------------------------------------|
D-|-----------------------------------------------------------------|
A-|-----------------------------------------------------------------|
E-|-4-4-7-7-4-4-7-7-4-4-7-7-4-4-7-7-3-3-6-6-3-3-6-6-3-3-6-6-3-3-6-6-|

e-|-----------------------------------------------------------------|
B-|-----------------------------------------------------------------|
G-|-----------------------------------------------------------------|
D-|-----------------------------------------------------------------|
A-|-----------------------------------------------------------------|
E-|-4-4-7-7-4-4-7-7-4-4-7-7-4-4-7-7-3-3-6-6-3-3-6-6-3-3-6-6-3-3-6-6-|

e-|---------------------------------------------------|
B-|---------------------------------------------------|
G-|---------------------------------------------------|
D-|---------------------------------------------------|
A-|-9-9-9-9-9-9-9-9-8-8-8-8-8-8-8-8-9-9-9-9-9-9-9-9-8-|
E-|-7-7-7-7-7-7-7-7-6-6-6-6-6-6-6-6-7-7-7-7-7-7-7-7-6-|

e-|--------------------------------------------|
B-|--------------------------------------------|
G-|--------------------------------------------|
D-|--------------------------------------------|
A-|-5-5-8-8-5--5-5-8-8-5--5-5-8-8-5--5-5-8-8-2-|
E-|-3-3-6-6-3--3-3-6-6-3--3-3-6-6-3--3-3-6-6-0-|
Comments