Dead Kennedys - Frankenchrist Chords & Tabs

 

Frankenchrist Chords & Tabs

Dead Kennedys Chords & Tabs

Version: 1 Type: Tab 0 ratings
1 star 2 stars 3 stars 4 stars 5 stars
comments

Frankenchrist Tab

   
Tabbed by Rbm90120		       Frankenchrist
Last Update:3/23/05 7:38 pm            Dead Kennedys
=========================================================================
=========================================================================
1. Soup Is Good Food 				    :Sk8SkaNJ
2. Hellnation 					    :CANT FIND
3. This Could Be Anywhere(This Could Be Everywhere) :MxTabs
4. A Growing Boy Needs His Lunch 		    :CANT FIND
5. Chicken Farm 				    :Jeff Munt
6. Jock-O-Rama (Invasion of the Beef Patrol)	    :MxTabs
7. Goons of Hazzard 				    :gerbilgenitalia
8. M.T.V. - Get Off the Air 			    :Biafra
9. At My Job					    :Jake Strange
10. Stars and Stripes of Corruption  		    :CANT FIND

-------------------------------------------------------------------------
Soup is Good Food
-------------------------------------------------------------------------

INTRO
e-----------------------------------------------------------|
B-----------------------------------------------------3-5-7-|
G-----------2-2---------2---2---5-4-2---6-5-2-----2-4-------|
D-----4-3---------(X8)----4---------------------4-----------|
A--2------4-------------------------------------------------|
E-----------------------------------------------------------|


e----5---5--7657657657657652--------------------------------|
B--7---7---------------------5-3----------------------------|
G--------------------------------4-2-0----------------------|
D--------------------------------------2-0------------------|
A------------------------------------------2-0--------------|
E-----------------------------------------------------------|


VERSE
e-----------------------------------------------------------|
B-----------------------------------------------------------|
G-----------------------------------------------------------|
D-----4-3--------------4-3---2-2-4--------(X10)-------------|
A--2------4--0-0-2--2------4--------------------------------|
E-----------------------------------------------------------|

PRE CHORUS
e--5---5-------11---10--------------5---7-------------------|
B--5---5-------11---10--------------5---7-------------------|
G--6---6-------12---11--------------6---8-----------*LOUD*--|
D--7---9-------13---12--------------7---9-----------13-13---|
A--7---9-------13---12------(X3)----7---9-----------11-11---|
E--5---7-------11---10--------------5---7-----------11-11---|

CHORUS
e------------7--7---9---9----10-10-6------------------------|
B------------7--7---9---9----10-10-6------------------------|
G------------8--8---10--10---11-11-7------------------------|
D------------9--9---11--11---12-12-8------------(x3)--------|
A------------9--9---11--11---12-12-8------------------------|
E------------7--7---9---9----10-10-6------------------------|

INTRO
e-----------------------------------------------------------|
B-----------------------------------------------------3-5-7-|
G-----------2-2---------2---2---5-4-2---6-5-2-----2-4-------|
D-----4-3---------(X8)----4---------------------4-----------|
A--2------4-------------------------------------------------|
E-----------------------------------------------------------|

This part got
confusing, so your on your own


e----5---5--7657657657657652--------------------------------|
B--7---7---------------------5-3----------------------------|
G--------------------------------4-2-0----------------------|
D--------------------------------------2-0------------------|
A------------------------------------------2-0--------------|
E-----------------------------------------------------------|

VERSE
e-----------------------------------------------------------|
B-----------------------------------------------------------|
G-----------------------------------------------------------|
D-----4-3--------------4-3---2-2-4--------(X10)-------------|
A--2------4--0-0-2--2------4--------------------------------|
E-----------------------------------------------------------|


PRE CHORUS
e--5---5-------11---10--------------5---7-------------------|
B--5---5-------11---10--------------5---7-------------------|
G--6---6-------12---11--------------6---8-----------*LOUD*--|
D--7---9-------13---12--------------7---9-----------13-13---|
A--7---9-------13---12------(X3)----7---9-----------11-11---|
E--5---7-------11---10--------------5---7-----------11-11---|

CHORUS
e------------7--7---9---9----10-10-6------------------------|
B------------7--7---9---9----10-10-6------------------------|
G------------8--8---10--10---11-11-7------------------------|
D------------9--9---11--11---12-12-8------------(x3)--------|
A------------9--9---11--11---12-12-8------------------------|
E------------7--7---9---9----10-10-6------------------------|


Solo???Fill

e----11---10-------------------------------------------------|
B----11---10-------------------------------------------------|
G----12---11-------------------------------------------------|
D----13---12---(x6)------------------------------------------|
A----13---12-------------------------------------------------|
E----11---10-------------------------------------------------|


Only Bass


VERSE
e-----------------------------------------------------------|
B-----------------------------------------------------------|
G-----------2-2---------------------------------------------|
D-----4-3---------(X8)--------------------------------------|
A--2------4-------------------------------------------------|
E-----------------------------------------------------------|


PRECHORUS
e--5---7-------11---10--------------5---7-------------------|
B--5---7-------11---10--------------5---7-------------------|
G--6---8-------12---11--------------6---8-----------*LOUD*--|
D--7---9-------13---12--------------7---9-----------13-13---|
A--7---9-------13---12------(X8)----7---9-----------11-11---|
E--5---7-------11---10--------------5---7-----------11-11---|

CHORUS
e------------7--7---9---9----10-10-6------------------------|
B------------7--7---9---9----10-10-6------------------------|
G------------8--8---10--10---11-11-7------------------------|
D------------9--9---11--11---12-12-8--------(x10)-----------|
A------------9--9---11--11---12-12-8------------------------|
E------------7--7---9---9----10-10-6------------------------|

Fill
e----11---10-------------------------------------------------|
B----11---10-------------------------------------------------|
G----12---11-------------------------------------------------|
D----13---12---(x2)------------------------------------------|
A----13---12-------------------------------------------------|
E----11---10-------------------------------------------------|

Outro?? Got lazy


SOUP IS GOOD FOOD
We're sorry
But you're no longer needed
Or wanted
Or even cared about here
Machines can do a better job than you
This is what you get for asking questions
The unions agree
"Sacrifices must be made"
Computers never go on strike
To save the working man you've got to put him out to pasture
Looks like we'll have to let you go
Doesn't it feel fulfilling to know
That you - the human being - are now obsolete
And there's nothing in hell we'll let you do about it
Chorus: Soup is good food - (We don't need you anymore)
You make a good meal - (We don't need you anymore)
Now how do you feel - (We don't need you anymore)
To be shit out our ass
And thrown in the cold like a piece of trash
We're sorry
You'll just have to leave
Unemployment runs out after just six weeks
How does it feel to be a budget cut?
You're snipped
You no longer exist
Your number's been purged from our central computer
So we can rig the facts
And sweep you under the rug
See our chart? Unemployment's going down
If that ruins your life, that's your problem
(Chorus)
We're sorry
We hate to interrupt
But it's against the law to jump off this bridge
You'll just have to kill yourself somewhere else
A tourist might see you
And we wouldn't want that
I'm just doing my job, you know
So say uncle
And we'll take you to the mental health zoo
Force feed you mind melting chemicals
'Til even the outside world looks great
In hi-tech science research labs
It costs too much to bury all the dead
the mutilated, disease-injected
Surplus rats who can't be used anymore
So they're dumped (with no minister present)
In a spiraling corkscrew disposal unit
Ground into stew and flushed away
Aw geez...
(Chorus)
We know how much you'd like to die
We joke about it on our coffee breaks
But we're paid to force you to have a nice day
In the wonderful world we made just for you
"Poor Rats", we human rodents chuckle
At least we get a dignified creation
And yet
At 6:00 tomorrow morning
It's time to get up and go to work

-------------------------------------------------------------------------
Hellnation
-------------------------------------------------------------------------

	Cant Find Please Email Me at RBM90120@aol.com

-------------------------------------------------------------------------
This Could Be Anywhere(This Could Be Everywhere)
-------------------------------------------------------------------------

e|---------------------------------------------------------------------------|
B|---------------------------------------------------------------------------|
G|----------------55----77---------------------------------------------------|
D|-55----55----------------44----44----44----44------------------------------|
A|-------------33----55------------------------------------------------------|
E|----33----33----------------22----22----22----22---------------------------|

play the above part twice then

e|---------------------------------------------------------------------------|
B|---------------------------------------------------------------------------|
G|----------------55----77---------------------------------------------------|
D|-55----55----------------444-44444-444-44444-444-44444-444-4444/5----------|
A|-------------33----55----444-44444-444-44444-444-44444-444-4444/5----------|
E|----33----33-------------222-22222-222-22222-222-22222-222-2222/3----------|

e|-3-333333-333-555-2-222222-2-222222-3-333333-333-555-2-222222--------------|
B|-3-333333-555-777-2-222222-2-222222-3-333333-555-777-2-222222--------------|
G|-4-444444-555-777-3-333333-3-333333-4-444444-555-777-3-333333-77665544-----|
D|-5-555555-555-777-4-444444-4-444444-5-555555-555-777-4-444444--------------|
A|-5-555555-333-555-4-444444-4-444444-5-555555-333-555-4-444444--------------|
E|-3-333333---------2-222222-2-222222-3-333333---------2-222222--------------|

e|-3-333333-333-555-9--9-9-9-9-9-9--9--9-9-9-9-9-9---------------------------|
B|-3-333333-555-777-11-111111111111-11-111111111111--------------------------|
G|-4-444444-555-777-11-111111111111-11-111111111111--------------------------|
D|-5-555555-555-777-11-111111111111-11-111111111111--------------------------|
A|-5-555555-333-555-9--9-9-9-9-9-9--9--9-9-9-9-9-9---------------------------|
E|-3-333333------------------------------------------------------------------|

This main G C D F# progression is used throughout the song
-------------------------------------------------------------------------
A Growing Boy Needs His Lunch
-------------------------------------------------------------------------

	Cant Find Email Me at RBM90120@aol.com

-------------------------------------------------------------------------
Chicken Farm
-------------------------------------------------------------------------


e-|-12--12----12--12-|-12-12-12-12-12-12-12-12-16-16-16-------------------|
B-|-12-----12-----12-|----------------------------------14-14-14-14-14-14-|
G-|-13---------------|----------------------------------------------------|
D-|-14---------------|----------------------------------------------------|
A-|------------------|----------------------------------------------------|
E-|------------------|----------------------------------------------------|

e-------------|-12-12-12-12-12-12-12-12-12-12-16-16-------------------|---|
B-14-14-14-14-|-------------------------------------13-13-13-12-12-12-|---|
G-------------|-------------------------------------------------------|---|
D-------------|-------------------------------------------------------|---|
A-------------|-------------------------------------------------------|---|
E-------------|-------------------------------------------------------|---|

e-|-19-19-16-17p16----16-19-16-17p16-----|--------------------------------|
B-|----------------17--------------------|--------------------------------|
G-|----------------------------------19--|-9-9-----9-------9--9--9--------|
D-|--------------------------------------|-9-9---9---9---9----------------|
A-|--------------------------------------|-7-7-7-------7------------------|
E-|--------------------------------------|--------------------------------|

   harmonic..this is apparently the verse
e-|---------------------------------------|
B-|---------------------------------------|
G-|-----------------------9---------9-----|
D-|--------------------9-----9------9-----|
A-|-7--7--7--etc----7-----------7---7-----|
E-|---------------------------------------|

e-|------------------------------------------------------------------------|
B-|------------------------------------------------------------------------|
G-|-9-9-9-9-9-8-7-7-7-7-7-8-8-9-9-9-9-9-8-7-7-7-7-7-8-12-12-12-12-12-11----|
D-|-9-9-9-9-9-8-7-7-7-7-7-8-8-9-9-9-9-9-8-7-7-7-7-7-8-12-12-12-12-12-11----|
A-|-7-7-7-7-7-6-5-5-5-5-5-6-6-7-7-7-7-7-6-5-5-5-5-5-6-10-10-10-10-10--9----|
E-|------------------------------------------------------------------------|

e-----------------------------------------------------------------------------|
B-----------------------------------------------------------------------------|
G--10-10-10-10-10-11-12-12-12-12-12-11-10-10-10-10-10-9-9-9-9-9-8-7-7-7-7-7-6-|
D--10-10-10-10-10-11-12-12-12-12-12-11-10-10-10-10-10-9-9-9-9-9-8-7-7-7-7-7-6-|
A---8--8--8--8--8--9-10-10-10-10-10--9--8--8--8--8--8-7-7-7-7-7-6-5-5-5-5-5-4-|
E-----------------------------------------------------------------------------|


-------------------------------------------------------------------------
Jock-O-Rama (Invasion of the Beef Patrol)
-------------------------------------------------------------------------

Intro
e[----------4-----------------4-]
b[-------5-----5-----------5----]
g[-2--6-----------6--2--6-------]

Main Riff/Verse:
a[----------------------------------------------------]
e[-5--3-3-0-0-3-3-5-5-3--0--0-3-3-5--3-3-0-0-5-5-3--0-]

OH AH OH bit mach I:
A C A
e[-5--5-5-5-5-3--5--5-5-5-5-5-5--]
b[-5--5-5-5-5-5--5--5-5-5-5-5-5--]
g[-6--6-6-6-6-5--6--6-6-6-6-6-6--]
d[-7--7-7-7-7-5--7--7-7-7-7-7-7--]
a[-7--7-7-7-7-3--7--7-7-7-7-7-7--]
e[-5--5-5-5-5----5--5-5-5-5-5-5--]

verse/main riff:
you really like gorillas? we\'ve got just the pet for you
it\'s the way you\'re forced to act to survive our schools
make whole life revolve around sports
walk tough - don\'t act to smart
B C main riff
be a mean machine then we\'ll let you get ahead

chorus:
D C D#
jock-o-rama - save my soul
D C A
we\'re under the thumb of the beef patrol
D C D#
the future of america is in there hands
D D#
watch it roll over niagra falls

--another verse--another chorus--

break:

A //// ; C ; A //// ; C ; A //// ; C ; A

e[-5-4-3------------------]
b[-------5-4------5--4--5-] X2
g[-------------2----------]

OH AH OH bit

e[-5-4-3------------------]
b[-------5-4------5--4----] X2
g[-------------2----------]
[ Tab from: http://www.guitartabs.cc/tabs/d/dead_kennedys/frankenchrist_tab.html ]
OH AH OH bit mach II:
A C A D F D
e[-5--5-5-5-5-3--5--5-5-5-5-5-5-5--5-5-5-5-08--7--7-7-7-7-7-7-]
b[-5--5-5-5-5-5--5--5-5-5-5-5-5-7--7-7-7-7-10--7--7-7-7-7-7-7-]
g[-6--6-6-6-6-5--6--6-6-6-6-6-6-7--7-7-7-7-10--7--7-7-7-7-7-7-]
d[-7--7-7-7-7-5--7--7-7-7-7-7-7-7--7-7-7-7-10--7--7-7-7-7-7-7-]
a[-7--7-7-7-7-3--7--7-7-7-7-7-7-5--5-5-5-5-08--5--5-5-5-5-5-5-]
e[-5--5-5-5-5----5--5-5-5-5-5-5-------------------------------]

(D) C A
unzip that old time religion on the almighty football field
D C A
beerbellies of all ages come to watch the gladiators bleed

OH AH OH
D C A
\"now boys this game ain\'t played for fun you\'re going out there to win
D C A
how d\'ya win? get out there and snap the other guys knee

(extreme mute on the A chord shape)
Beat em up! Beat em up Ra Ra Ra

snap those spinal chords Ha Ha Ha
D D C D
the star Quarter Back lies injured unconcious on the football feild
D D C G D
looks like his necks been broken seems to happen somwhere every year

--another few lines--same chords--

who cares? bit: A ////// ; A# ////// ; B ////// ; C ////// repeat 1ce

new main riff: (just up three semi-tones)

d[-----------------------------------------------------1--1--1-]
a[-3--1-1-----1-1-3-3-1-------1-1-3--1-1-----1-1-3-3-3---------]
e[--------3-3------------3--3------------3-3-------------------]

--another verse--another chorus--both up three semi-tones--

end with

C ////// ; Bb ////// ; A ////// ; G / ; A ; Bb ; X3

C ////// ; Bb ////// ; A ////// ; D# / / ; C


-------------------------------------------------------------------------
Goons of Hazzard
-------------------------------------------------------------------------

classic song dunno why no-ones tabbed it yet but here it is you 100% correct tab. Enjoy!

on the intro while the bass line is playing-

E----0----|
B----0----|
G----1----|   Then just play some notes from that chord (the top three)
D----2----|
A----2----|
E----0----|


main riff thing-

E--14-14-14-14-14--13-13--14-14-14-14-14--15-15--|
B--12-12-12-12-12--11-11--12-12-12-12-12--13-13--|
G------------------------------------------------|
D------------------------------------------------|
A------------------------------------------------|
E------------------------------------------------|


bit before verse-

E--0----1---0----3------------|
B--0----1---0------1----------|
G--1----2---1---------3^---1--|  listen to the record to see how to bend the
D--2----3---2------------3----|  note.
A--2----3---2-----------------|
E--0----1---0-----------------|


verse-

E--0----1----0----------5----6----0--|
B--0----1----0----------5----6----0--|
G--1----2----1----------6----7----1--|  after this play the lead bit from
D--2----3----2----------7----8----2--|  above. then play the E and F chords
A--2----3----2----------7----8----2--|  again.
E--0----1----0----------5----6----0--|


pre-chorus-

E----------------------------|
B--7----8----9---------------|
G--7----8----9---------------|
D--7----8----9----2-0--------|
A--5----6----7--------2-0----|
E-------------------------2--|


chorus-

E--------------------7--5--3--0--|
B-7--9--7--9--7--9-7-7--5--3--0--|
G-7--9--7--9--7--9-7-8--6--4--1--|  on the repititions of the chorus it stays
D-7--9--7--9--7--9-7-9--7--5--2--|  on the G chord and then goes into the main
A-5--7--5--7--5--7-5-9--7--5--2--|  riff.
E--------------------7--5--3--0--|


middle-

E------------------------------------------------------------|
B-9---9---10-9---9---9---10-9---7---7---8--7---7---7---8--7--|
G-9---9---9--9---9---9---9--9---7---7---7--7---7---7---7--7--|  X2
D-9---9---9--9---9---9---9--9---7---7---7--7---7---7---7--7--|
A-7---7---7--7---7---7---7--7---5---5---5--5---5---5---5--5--|
E------------------------------------------------------------|


middle cont.-

E-------------------|
B--------------9-9--|
G--------------9-9--| x2 tremlo pick the single notes
D--------------9-9--|
A-----------0--7-7--|
E--0--3--2----------|

middle cont.-

E--------------------------------------------------8--|
B--------------------------------------------------8--|
G--------------------------------------------2--1--9--| tremlo pick these
D--------------------2--1-----0--4--3--0--3--------10-|
A--------2--1--0--3--------2-----------------------10-|
E--0--3--------------------------------------------8--|


ending- play this after the final chorus

E----------|
B--9----7--|
G--9----7--| x5 then on the 6th time play.......
D--9----7--|
A--7----5--|
E----------|


E----------------------------------------------|
B-9----7-7-7-7-7----7-7-7-7-7----7-7-7-7-7--9--|
G-9----7-7-7-7-7----7-7-7-7-7----7-7-7-7-7--9--|
D-9----7-7-7-7-7----7-7-7-7-7----7-7-7-7-7--9--|
A-7----5-5-5-5-5----5-5-5-5-5----5-5-5-5-5--7--|
E----------------------------------------------|


thats it!

tabbed by the masterful punk tabber chris.l

if you want any PUNK songs tabbed on hear give me a yell- gerbilgenitalia@yahoo.co.uk

-------------------------------------------------------------------------
M.T.V. - Get Off the Air
-------------------------------------------------------------------------

Intro:  F#    B  C#  (2x bass only)

F#                 B      C#
Fun Fun Fun in the fluffy chair
      F#
Flame up the herb
     B        C#
Woof down the beer  (2x and continues on background)


(click!)

F#                 B  C#
Hi! I'm your video DJ
  F#                   B             C#
I always talk like I'm wigged out on quaaludes
F#             B        C#                  F#   B  C#
I wear a satin baseball jacket everywhere I go

   F#        B        C#
My job is to help destroy
       F#            B   C#
What's left of your imagination
   F#          B       C#
By feeding you endless doses
   F#                    B       C#
Of sugar-coated mindless garbage

   F#           B    C#
So don't create Be sedate
     F#                    B              C#
Be a vegetable at home And thwack on that dial
   F#                   B          C#
If we have our way even you will believe  (Fun fun fun... ends)
F#
This is the future of rock and roll

(M.T.V GET OFF THE AIR!)

    F#              B A
How far will you go
    F#                 B A
How low will you stoop
   B               A               B            A
To tranquilize our minds with your sugar-coated swill

       F#                             B A
You've turned rock and roll rebellion
     F#                 B A
Into Pat Boone sedation
B           A              B           D
Making sure nothing's left of the imagination

   C#     B
   M.T.V. Get off the
   C#     B
   M.T.V. Get off the
   C#     B           F#
   M.T.V. Get off the air  (2x)

          E           F#
          Get off the air

F#                     B A F#                   B A
See the latest rejects     from the muppet show
B                        A
Wag their tits and their dicks
        B            A
As they lip-synch on screen

        F#
There's something I don't like
 B    A F#                     B A
About a band who always smiles
  B         A
Another tax write-off
         B                   D
For some schmuck who doesn't care

  M.T.V. Get off the air...

         Get off the air
         Get off the air
                     F# F E D# C#
         Get off the air


(bass break - following line twice: 1st time with bass only, 2nd time with
 guitar playing chords above)


  C#       B        C#       B        F#       E        F#       E

g --------|--------|--------|--------|--------|--------|--------|--------|
d --------|----1---|----3---|--------|4-----4-|2\1-----|4-4-6-4-|2\1-----|
a 4-4---4-|2-2---2-|4-4---4-|2---4-24|----4---|----4-2-|--------|----4-2-|
e ----4---|--------|--------|--------|--------|--------|--------|--------|


(and this once)


  C#       B        C#       B        F#       E        C#

g --------|--------|--------|--------|--------|--------|--------|--------|
d --------|----1---|----3---|--------|4-----4-|2\1-----|4-------|--------|
a 4-4---4-|2-2---2-|4-4---4-|2---4-24|----4---|----4-2-|--------|--------|
e ----4---|--------|--------|--------|--------|--------|--------|--------|


C#m  B  A  G#   (2x trumpet or something)

    C#    B
And so it was
    C#                B
Our beloved corporate gods
F#             E          F#    E
Claimed they created rock video
C#             B              C#       B
Allowing it to sink as low in one year
   F#         E         C#
As commercial TV has in 25

C#m                      B
"It's the new frontier," they say
     A                       G#
It's wide open, anything can happen
    C#m
But you've got a lot of nerve
            B
To call yourself a pioneer
                A
When you're too god-*** conservative
        G#
To take real chances.

C#        B
Tin-eared
      C#    B         F#
Graph-paper brained accountants
E                F#   E
Instead of music fans
C#           B              C#               B
Call all the shots at giant record companies now
    F#              E         C#
The lowest common denominator rules

C#m
Forget honesty
B
Forget creativity
    A
The dumbest buy the mostest
           G#
That's the name of the game

    C#m
But sales are slumping
    B
And no one will say why
A                                     G#
Could it be they put out one too many lousy records?!?

C#       B           F#
M.T.V. - Get off the air!

F#
NOW!


----------------------------------------------------------------------
Some chords may be missing in the fast part and the bass line probably
isn't very accurate. At least it's played higher, I think. Corrections
are naturally welcome.


-------------------------------------------------------------------------
At My Job
-------------------------------------------------------------------------

AT MY JOB, Dead Kennedys. Written by East Bay Ray.
Tabbed by Jake Strange (aka: scumfuc) for guitar.
I've covered this song before & it sounds good. I know
of no one or nowhere else who has tab for this, so I'll
attempt to submit it here & hope someone finds it usefull.
Email: jakestrange@chaosmagic.com
Oh, yeah, this is along one, so if you try this one out, try it
playing  along w/ the CD.


Opening Part:
e|------------------------------------------------------|
B|------------------------------------------------------|
G|--------4-----------4------------4--------------4-----|
D|---4-4--4------4-4--4-------4-4--4---------4-4--4-----|
A|---2-2--2------2-2--2-------2-2--2---------2-2--2-----|
E|------------------------------------------------------|
   pm---|       pm--|       pm---|         pm-----------|


Verse Riff: (high notes in parentheses are played by 2nd guitar)
e|---------------------------------------------------------|
B|--------(6)----------(6)-----------(6)-------------------|
G|--------(4)----------(4)-----------(4)------9--7--5--7---|
D|---4-4---4------4--4--4--------4-4--4-------9--7--5--7---|
A|---2-2---2------2--2--2--------2-2--2-------7--5--3--5---|
E|---------------------------------------------------------|

Chorus:
e|----------------------------------------------|
B|------10--------10--------10------------------|
G|--10---9---10----9----10---9-----9--7--5--7---|
D|--10---7---10----7----10---7-----9--7--5--7---|
A|---8--------8----------8---------7--5--3--5---|
E|----------------------------------------------|

Post Chorus:
e|------------------------------------------|
B|------------------------------------------|
G|-----7--7-----6--------10-10-----8---9----|
D|--7--7--7--5--6-----8--10-10-----8---9----|
A|--7--5--5--5--4-----8---8--8-----6---7----|
E|--5--------3--------6---------------------|

1st Solo:
e|-----12--11--14--------10--9----------12--11--14--12------12--11--14----|
B|--9-----------------9---------9----9------------------7h9---------------|
G|------------------------------------------------------------------------|
D|------------------------------------------------------------------------|
A|------------------------------------------------------------------------|
E|------------------------------------------------------------------------|continued...

e|--11--10------12--11---10--11--10-----------|
B|-----------9-----------------------13--12---|
G|--------------------------------------------|
D|--------------------------------------------|
A|--------------------------------------------|
E|--------------------------------------------|

2nd solo:
e|-----11--10--13--11--------11--10--13---|
B|--8---------------------8---------------|
G|----------------------------------------|
D|----------------------------------------|
A|----------------------------------------|
E|----------------------------------------|

3rd Solo:
e|-----11--10----10--11--10--11-----------11--10-----10--11--10--------|
B|--9----------------------------------8-------------------------12----|
G|---------------------------------------------------------------------|
D|---------------------------------------------------------------------|
A|---------------------------------------------------------------------|
E|---------------------------------------------------------------------|

OK, now here's the order in which to play all of the above...
Opening Riff
Verse Riff (8x)
Chorus (3x)
Post-chorus
Verse Riff (5x)
Chorus (3x)
Post-chorus
Verse Riff (1x)
F  D# (3x) w/ 1st solo
Post-chorus
Verse riff (1x) w/ 2nd solo
Post-chorus
Verse Riff (1x) w/ 3rd solo
Verse Riff (3x)
Chorus (3x)
Post-chorus
Chorus (2x)
Post-chorus (2x)
End


Note: the end of the song is basically the low & high notes
      that were used in the verse riff strummed as one chord.

-------------------------------------------------------------------------
Stars and Stripes of Corruption
-------------------------------------------------------------------------

	Can't Find Email Me @ RBM90120@aol.com
Comments