Dead Kennedys - Drug Me Chords & Tabs

 

Drug Me Chords & Tabs

Dead Kennedys Chords & Tabs

Version: 1 Type: Tab 0 ratings
1 star 2 stars 3 stars 4 stars 5 stars
comments

Drug Me Tab

   
-------------------------------------------------------------------------------
			     DRUG ME - Dead Kennedys
-------------------------------------------------------------------------------
Tabbed by: danc446
Email: danc446@yahoo.com

Tuning: Standard E Tuning
 
e|------------------------------------------------------------|--------------|
B|---Repeat this----------------------------------------------|--------------|
G|--for some times--------------------------------------------|--Repeat this-|
D|------------------------------4-6-4---------4-6-4-----------|--whole thing-|
A|--4-2-4-2-4-2-4-2---4-2-4-4-4-------5-4-4-4-------5-4-4-4---|----again,----|
E|------------------------------------------------------------|-----THEN...--|

(This is riff A)
e|---------------------------------------------------------------------------|
B|---------------------------------------------------------------------------|
G|---------------------------------------------------------------------------|
D|---------------------------------------------------------------------------|
A|------------6-6-6-6-6-----------10-10-10-10-10-----------------------------|
E|--0-0-0-0-0-----------0-0-0-0-0--------------------------------------------|

 (This is riff B)
e|---------------------------------------------------------------------------|
B|---------------------------------------------------------------------------|
G|---------------------------------------------------------------------------|
D|---------------------------------------------------------------------------|
A|--{5-3-5-6}-5-3-5-6-5-3-5-6-5-3-5-6-5-3-5-6-5-3-5-6-5-3-5-6-5-3-5-3--------|
E|---------------------------------------------------------------------------|
[ Tab from: http://www.guitartabs.cc/tabs/d/dead_kennedys/drug_me_tab.html ]
e|-------------------------------------------------------------|-------------|
B|-------------------------------------------------------------|-------------|
G|--Repeat-----------------------------------------------------|-Repeat this-|
D|this some----------------------------------------------------|-all again..-|
A|----------------------------3-5-3-----------3-5-3------------|-------------|
E|--3-1-3-1-----3-1-3-1-3-3-3-------4-3-3-3-3-------3-3-3-3-3--|----THEN-----|

Here play Riff B

e|---------------------------------------------------------------------------|
B|---------------------------------------------------------------------------|
G|---------------------------------------------------------------------------|
D|---------------------------------------------------------------------------|
A|---------6-6-6-6---------12-12-12-12---------13-13-13-13-13-13-13-13-13----|
E|-0-0-0-0---------0-0-0-0-------------0-0-0-0-------------------------------|

   C5                F#5      F5     (Bb5 C5)
e|---------------------------------------------------------------------------|
B|---------------------------------------------------------------------------|
G|-------------------11-11-11-10-10-10---------------------------------------|
D|-10-10-10-10-10-10-11-11-11-10-10-10--8-10--8-10--8-10--8-10---------------|
A|-10-10-10-10-10-10--9--9--9--8--8--8--8-10--8-10--8-10--8-10---------------|
E|--8--8--8--8--8--8--------------------6--8--6--8--6--8--6--8---------------|

e|---------------------------------------------------------------------------|
B|-------------------------------------------------------------------Repeat--|
G|--------------------------------------------------------------------again--|
D|---------------------------------------------------------------------------|
A|----------------------------------------5-7-5-----------5-7-5--------------|
E|--5-3-5-3-5-3-5-3-5-3-5-3-5-3-5-3-5-5-5-------6-5-5-5-5-------6-5----------|

Plat Riff A

Play Riff B

| /  slide up
| \  slide down
| h  hammer-on
| p  pull-off
| ~  vibrato
| +  harmonic
| x  Mute note
===========================================================================
Good stuff!!!
Comments