Dead Kennedys - Chemical Warfare Chords & Tabs

 

Chemical Warfare Chords & Tabs

Dead Kennedys Chords & Tabs

Version: 1 Type: Tab 0 ratings
1 star 2 stars 3 stars 4 stars 5 stars
comments

Chemical Warfare Tab

   
Chemical warfare
Dead Kennedys
Fresh Fruit For Rotting Vegetables
Standard Tuning


Intro:
e-|--------------------------------------|
B-|--------------------------------------|
G-|--------------------------------------|
D-|------------------------------------7-|
A-|---3-3-5-3----3-3-7-7-3-3---3-3-5-3-7-|
E-|-5----------5-------------5---------5-|

riff 1:
e-|----------------------------------------------------|
B-|----------------------------------------------------|
G-|----------------------------------------------------|
D-|-10-10-10-10-9-9-7--7-x-7-5-5--7-10-10-10-10-9-9-7--|
A-|-10-10-10-10-9-9-7--7-x-7-5-5--7-10-10-10-10-9-9-7--|
E-|--8--8--8--8-7-7-5--5-x-5-3-3--5--8--8--8--8-7-7-5--|


riff 2:
e-|--------------------------------|
B-|--------------------------------|
G-|--------------------------------|
D-|-7-7-10-10-7-7-10-10-12-12-10-7-|
A-|-7-7-10-10-7-7-10-10-12-12-10-7-|
E-|-5-5--8--8-5-5--8--8-10-10--8-5-|

riff 3:
e-|----------------------------------|
B-|----------------------------------|
G-|-7-7-7-10-10-7-7-10-10-12-12-10-7-|
D-|-7-7-7-10-10-7-7-10-10-12-12-10-7-|
A-|-5-5-5--8--8-5-5--8--8-10-10--8-5-|
E-|----------------------------------|

riff 4:
e-|-------------------------------------------------------------------
B-|-------------------------------------------------------------------
G-|-------------------------------------------------------------------
D-|-7-7-7-7-7-7-7-7-7-7-7-7-7-7-7-7--7-7-5-10-10-10-10-7-7-5-10-10-10-
A-|-7-7-7-7-7-7-7-7-7-7-7-7-7-7-7-7--7-7-5-10-10-10-10-7-7-5-10-10-10-
E-|-5-5-5-5-5-5-5-5-5-5-5-5-5-5-5-5--5-5-3--8--8--8--8-5-5-3--8-8-8-8-

e-|-------------------------------------------------------|
B-|-------------------------------------------------------|
G-|-------------------------------------------------------|
D-|-7-7-5-10-10-10-10-10-10-10-10-10-10-10-10-10-10-10-10-|
A-|-7-7-5-10-10-10-10-10-10-10-10-10-10-10-10-10-10-10-10-|
E-|-5-5-3--8--8--8--8--8--8--8--8--8--8--8--8--8--8--8--8-|
[ Tab from: http://www.guitartabs.cc/tabs/d/dead_kennedys/chemical_warfare_tab.html ]
riff 5:
e-|----------------------------------------------|
B-|----------------------------------------------|
G-|-9-9-9-12-9--9-9-9-12-9--9-9-9-12-9--7-9-7-9--|
D-|-9-9-9-12-9--9-9-9-12-9--9-9-9-12-9--7-9-7-9--|
A-|-7-7-7-10-7--7-7-7-10-7--7-7-7-10-7--5-7-5-7--|
E-|----------------------------------------------|

riff 6:
e-|------------------------------------|
B-|------------------------------------|
G-|------------------------------------|
D-|-7--7-7-6-6-5-5-4-4-7-7-6-6-5-5-4-4-|
A-|-7--7-7-6-6-5-5-4-4-7-7-6-6-5-5-4-4-|
E-|-5--5-5-4-4-3-3-2-2-5-5-4-4-3-3-2-2-|

riff 7:
e-|----------------------------------|
B-|----------------------------------|
G-|----------------------------------|
D-|-10-10--7-7-5-5-5-5-5-7-10-10-7-7-|
A-|-10-10--7-7-5-5-5-5-5-7-10-10-7-7-|
E-|--8--8--5-5-3-3-3-3-3-5--8--8-5-5-|

riff 8:
e-|-------------------------------------------------------|
B-|-------------------------------------------------------|
G-|-7-7-5-10-10-7-7-5-10-10-7-7-5-10-10-10-10-10-10-10-10-|
D-|-7-7-5-10-10-7-7-5-10-10-7-7-5-10-10-10-10-10-10-10-10-|
A-|-5-5-3--8--8-5-5-3--8--8-5-5-3--8--8--8--8--8--8--8--8-|
E-|-------------------------------------------------------|

riff 9:
e-|-----------------------|
B-|-----------------------|
G-|-----------------------|
D-|-7--x--5--x--2-2-2-2-5-|
A-|-7--x--5--x--2-2-2-2-5-|
E-|-5--x--3--x--0-0-0-0-3-|

riff 10:
e-|-------------------------------------------|
B-|-------------------------------------------|
G-|-------------13-12-13-15-13-12-13--------12-
D-|-11-10-11-13----------------------10-13-----
A-|-------------------------------------------|
E-|-------------------------------------------|

e-|-------------------------------------------|
B-|-------------------------------------------|
G-|-------------12-11-12-13-12-11-12----12----|
D-|-11-10-11-13----------------------11----10-|
A-|-------------------------------------------|
E-|-------------------------------------------|

Riff
1
2-2x
3
4
1
2-2x
3
4
5
6
2
2
3
7
8
5
9
10
5
Comments