Dead Kennedys - At My Job Chords & Tabs

 

At My Job Chords & Tabs

Dead Kennedys Chords & Tabs

Version: 1 Type: Bass Tab

At My Job Bass Tab

tabbed by dane lisieski

dead kennedys
at my job
frankenchrist


(-----------------------------------|
(--44---4---4---2-0---0-------------|
(2----2---2---2-----3---------------|
(-----------------------------------|
verse
[ Tab from: http://www.guitartabs.cc/tabs/d/dead_kennedys/at_my_job_btab.html ]
(----------------------------------|
(-3-----3-----3----3-2-0---0-------|
(---0-0---0-0---0--------3---------|
(----------------------------------|
chorus

(---------------------------|
(------------------33-1-2---|
(-0---5-5----3--1-----------|
(---------4-----------------|

after chours


if anything is worng then email me at Dbom90@aol.com
thanks