Dead Fucking Last - Thought Control Chords & Tabs

 

Thought Control Chords & Tabs

Dead Fucking Last Chords & Tabs

Version: 1 Type: Bass Tab 0 ratings
1 star 2 stars 3 stars 4 stars 5 stars
comments

Thought Control Bass Tab

Song:Thought control
Band: Dead Fucking Last
Album: ...punk o rama 2
tabbed by: Carlos Pino    

intro

G:---------------------------------------------------------------
D:---------------------------------------------------------------
A:---------------------------------------------------------------
E:-0-7-7-7--5-8--5-8--7-7-7--5-8--5-8-5-8-5-8-5-8   

verse
[ Tab from: http://www.guitartabs.cc/tabs/d/dead_fucking_last/thought_control_btab.html ]
G:---------------------------------------------------------------
D:---------------------------------------------------------------
A:---------------8-5-5-5-5-5-8---------------8-7-7-7-----
E:-8-8-8-8-8---------------------8-8-8-8-8----------------   

at end of verse, there`s  this fill (ie, ''don`t do that, don`t do this'')

G:---------------------------------------------------------------
D:---------------------------------------------------------------
A:-8-8-8-8-8--7-5-5-5-5-5-7-8-8-8-8-7----------------
E:-------------------------------------------------8-------------   

chorus

G:---------------------------------------------------------------
D:---------------------------------------------------------------
A:-7-7-7-------------------------------------------------------
E:----------7-7-7-8-8-8--5-5-5-----------------------------
Comments