De Saloon - Carne Chords & Tabs

 

Carne Chords & Tabs

De Saloon Chords & Tabs

Version: 1 Type: Tab 0 ratings
1 star 2 stars 3 stars 4 stars 5 stars
comments

Carne Tab

   
Intro (Fig.1)
    E-----------------0---------------------0------|
    B----3--------3-----------3--------3-----------|
    G------3--------3-----------3--------3---------| X2
    D----------------------------------------------|
    A--3--------------------3----------------------|
    E-----------3--------------------3-------------|

    Versos (Fig.2)
    E-----------------0---------------------0------|
    B----3--------3-----------3--------3-----------|
    G------3--------3-----------3--------3---------| X2
    D----------------------------------------------|
    A--3--------------------3----------------------|
    E-----------3--------------------3-------------|


    E-----------------------|
    B----1--------4---------|
    G------2--------5-------|
    D-----------------------|
    A--3--------3-----------|
    E-----------------------|

[ Tab from: http://www.guitartabs.cc/tabs/d/de_saloon/carne_tab.html ]
    carne, huelo carne, tu haces hambre
    estoy apunto de comerte
    hambre, solo es hambre
    sabes bien que sabes muy bien, oh


    Coro
         G5          C5                     Cm
    y mi carne esta apunto de hablar con tu alma
        Eb         F            G5
    y decirle a la cara, no te amo mas
           C5          Cm    Eb    F
    seamos carne, solo carne


    Fig.2
    carne, todo es carne
    dejame pecar
    se esta pudriendo el amor


    Coro (X2)

    y mi carne esta apunto de hablar con tu alma
    y decirle en la cara no te amo mas
    seamos carne solo carne

    seamos carne!!
    solo carne!!

    Fig.1
    seamos carne....
    solo carne....


    Acordes

      G5   C5  Cm   Eb   F
    E-----------3--------1------|
    B-----------4--------1------|
    G------5----5---8----2------|
    D--5---5----5---8----3------|
    A--5---3----3---6----3------|
    E--3---3----3---6----1------|
Comments