De Saloon - Asfixiar Chords & Tabs

 

Asfixiar Chords & Tabs

De Saloon Chords & Tabs

Version: 1 Type: Tab 0 ratings
1 star 2 stars 3 stars 4 stars 5 stars
comments

Asfixiar Tab

   
Fig.1 Intro/Versos
      E------------------------------------------|
      B--------4----------4---------3------------|
      G----------5----------5---------5----------|
      D------5---------5----------4--------------|
      A----3---------6----------5----------------|
      E------------------------------------------|


      Cuanto tiempo mas para despertar
      Cuanto tiempo mas para decir mal
      Cuanto tiempo mas para convencerte
      que no era yo
      que no eras tú
                   F5
      fuimos los dos

      Coro
                          C5
      tal vez te pueda tocar
                 Eb5      G5
      tal vez te pueda mirar
      F
      como lo hacia antes
      C5         Eb5     G5  F
      tal vez te pueda tocar


      C5         Eb5      G5
      tal vez te pueda tocar
              F
      como lo hacia antes
      C5         Eb5
      tal vez te pueda mirar...


     Fig. 1

     Cuanto tiempo mas para despertar
     Cuanto tiempo mas para decir mas
     Cuanto tiempo mas para convencerme
     que no era yo
     que no eras tú
                  F5
     nunca fue amor


     Coro

                         C5
     tal vez te pueda tocar
                 Eb5      G5
     tal vez te pueda mirar
      F
     como lo hacia antes
     C5         Eb5     G5  F
     tal vez te pueda tocar


     tal vez te pueda tocar
     como lo hacia antes
     tal vez te pueda mirar...

     tal vez te pueda tocar
     como lo hacia antes
     tal vez te pueda mirar...
[ Tab from: http://www.guitartabs.cc/tabs/d/de_saloon/asfixiar_tab.html ]
     tal vez te pueda tocar
     como lo hacia antes
     tal vez te pueda asfixiar!!


     Fig. 2

    E--------------------------------|
    B--11(M.V)--10(M.V)--8(M.V)------|
    G--------------------------------|
    D--------------------------------| X3
    A--------------------------------|
    E--------------------------------|


    E--------------------------------------------------------|
    B--11--13--10--11--15(M.V)--16(M.V)---15-13--10-11-------|
    G--------------------------------------------------------|
    D--------------------------------------------------------|
    A--------------------------------------------------------|
    E--------------------------------------------------------|


    E--------------------------------------------------------|
    B---15(M.V)--16(M.V)--10--11--13--15---------------------|
    G--------------------------------------------------------|
    D--------------------------------------------------------|
    A--------------------------------------------------------|
    E--------------------------------------------------------|


    (desde aca se tocan los mismos acordes del coro hasta el
     el final y se termina en G5)

    tal vez te pueda tocar
    como lo hacia antes
    tal vez te pueda mirar...

    tal vez te pueda tocar
    como lo hacia antes
    tal vez te pueda asfixiar!!

    (de fondo se escucha la Fig. 2)
    como lo hacia antes
    como lo hacia antes
    como lo hacia antes
    como lo hacias antes
    como lo haciamos antes

    Acordes

       C5   Eb5   G5     F     F5
    E--------------------1------------|
    B--------------------1------------|
    G--5-----8-----------2-----10-----|
    D--5-----8-----5-----3-----10-----|
    A--3-----6-----5-----3-----8------|
    E--3-----6-----3-----1-----8------|
Comments