Dc Talk - Supernatural Chords & Tabs

 

Supernatural Chords & Tabs

Dc Talk Chords & Tabs

Version: 1 Type: Tab 0 ratings
1 star 2 stars 3 stars 4 stars 5 stars
comments

Supernatural Tab

Author: DC Talk
Title: Supernatural

Drop D tuning:
DADGBE

Key
/= slide up

Verse 1:
-----|---------||-
-----|-------.-||-
-----|---------||-
-----|-------.-||-
-----|---------||-
-0-*-|---------||-

*= hold 2 measures with flanger. Repeat several times

Pre- Chorus:
---------------------------||-
-------------------------.-||-
-12--12----7--7------------||-
-12--12----7--7----7--7--.-||-
-10--10----5--5----7--7----||-
-------------------7--7----||-
                             But I can see you commin'...
Chorus:
------------------------------------------------
------------------------------------------------
------------------------------------------------
----8--8--8-----0--0--0-----7--7--7-----3--3--3-
----8--8--8-----0--0--0-----7--7--7-----3--3--3-
----8--8--8-----0--0--0-----7--7--7-----3--3--3-
       God  is  there,   and   he  is   comming...

--------------------------------
--------------------------------
--------------------------------
----8--8--8-----3--3--3-----10--
----8--8--8-----3--3--3-----10--
----8--8--8-----3--3--3-----10--
    He tells me all is well...

------------------------------------------------
------------------------------------------------
------------------------------------------------
----8--8--8-----0--0--0-----7--7--7-----3--3--3-
----8--8--8-----0--0--0-----7--7--7-----3--3--3-
----8--8--8-----0--0--0-----7--7--7-----3--3--3-
   God  is  there, and he is comming...
[ Tab from: http://www.guitartabs.cc/tabs/d/dc_talk/supernatural_tab.html ]
-------------------------------
-------------------------------
-------------------------------
----8--8--8-----3--3--3-----10-
----8--8--8-----3--3--3-----10-
----8--8--8-----3--3--3-----10-
    Supernatural...

------------------------------||-
------------------------------||-
------------------------------||-
----8--8--8-----3--3--3-----0-||-
----8--8--8-----3--3--3-----0-||-
----8--8--8-----3--3--3-----0-||-
    Supernatural. 


Lick in verse two:
------------------------||-
---------------------.--||-
------------------------||-
---------------------.--||-
---5---5--0----0--------||-
-0---0------5-----0-----||-


SOLO: (chords same as chorus)
-----------------10v------------------10v-------------------------------
--10h-11--10v----------10h-11--10v----------10h-11--10v-----13v---------
--------------12-------------------12-------------------12--------------
------------------------------------------------------------------------
------------------------------------------------------------------------
------------------------------------------------------------------------


------15----15-------------------10v---17h-18--17------17h-18--17-------
--/13----13----13---------------------------------15--------------13----
-------------------10h-11--10-------------------------------------------
------------------------------12----------------------------------------
------------------------------------------------------------------------
------------------------------------------------------------------------


----------||-
----------||-
----------||-
----------||-
--/7v--7--||-
----------||-
Comments