Dc Talk - So Help Me God Chords & Tabs

 

So Help Me God Chords & Tabs

Dc Talk Chords & Tabs

Version: 1 Type: Bass Tab

So Help Me God Bass Tab

DC Talk
"So Help Me God"

This is only the main Riff. Make sure you look at the second line for the 
"0-5-4-3"

-Enjoy!
[ Tab from: http://www.guitartabs.cc/tabs/d/dc_talk/so_help_me_god_btab.html ]
G|---------------------------------------------------------------------|
D|-------------------------0-3-4-5-5---0-3-4-5-------------------------|
A|-----0-3-4-5---0-3-4-5-----------------------------------------------|
E|---------------------------------------------------------------------|

G|---------------------------------------------------------------||
D|-----------------------0-3-4-5-5---0-5-4-3--------------------*||
A|----0-3-4-5--0-3-4-5------------------------------------------*||
E|---------------------------------------------------------------||