Dc Talk - Jesus Freak Chords & Tabs

 

Jesus Freak Chords & Tabs

Dc Talk Chords & Tabs

Version: 3 Type: Tab 0 ratings
1 star 2 stars 3 stars 4 stars 5 stars
comments

Jesus Freak Tab

Song: Jesus Freak Intro
Artist: DC Talk
Tabbed By: Daniel Alloway

[ Tab from: http://www.guitartabs.cc/tabs/d/dc_talk/jesus_freak_tab_ver_3.html ]
Easy Version
e|--------------------------------------------------|
b|--------------------8-8--6-6----------------------|
g|--------------------8-8--7-7----------------------|
d|--3-3-3-3--6-6-6-6--8-8--6-6--10-10-10------------|
a|--3-3-3-3--6-6-6-6--6-6--8-8--10-10-10------------|
E|--1-1-1-1--4-4-4-4--6-6--6-6--8--8--8-------------|


Improved Version

x = Palm Mute

e|--------------------------------------------------|
b|-------------------------6-6----------------------|
g|--------------------8-8--7-7----------------------|
d|--3-3-3-3--6-6-6-6--8-8--6-6--10-10-10------------|
a|--3-3-3-3--6-6-6-6--6-6--8-8--10-10-10------------|
E|--1-1-1-1--4-4-4-4--6-6--6-6--8--8--8-------------|
    x x   x  x x   x  x x    x  x  x
Comments